Song name
# A B C D E F G H I J K L M N O P Q R S T U V W X Y Z

House Boulevard - Set Me Free tab

Set me free - House Boulevard feat. Samara

- - This tab's an adaptation for guitar - -

--> Intro


e ---------------------------------------------------------------------|
B ---------------------------------------------------------------------|
G ---------------------------------------------------------------------|
D ---------------------------------------------------------------------|   2x
A ---------------------------------------------------------------------|
E --4-----4-4---------0-----0-0----------4-----4-4---------0-----0-0---|

e ---------------------------------------------------------------------|
B ---------------------------------------------------------------------|
G ---------------------------------------------------------------------| till
D ---------------------------------------------------------------------| calm
A ---------------------------------------------------------------------| part
E --4-----4-4---------0-----0-0----2--2---4-----4-4---------0-----0-0--|

--> Calm part

Guitar 1

e -----------------------------------|
B -----------------------------------|
G -----------------------------------|
D --6-6-6-6-6-6-6-6-2-2-2-2-2-2-2-2--|
A --6-6-6-6-6-6-6-6-2-2-2-2-2-2-2-2--|
E --4-4-4-4-4-4-4-4-0-0-0-0-0-0-0-0--|

Guitar 2

e ------------------------------------|
B ------------------------------------|
G ------3-----------------------------|
D ----3------------------4------------|
A --1------------------4--------------|
E -------------------2----------------|

--> 1st Chorus

e ---------------------------------------------------------------------|
B ---------------------------------------------------------------------|
G ---------------------------------------------------------------------|
D ---------------------------------------------------------------------|
A ---------------------------------------------------------------------|
E --4--4--4--4----4-4-4-4--0--0--0--4--4--4--4----4-4-4-4--0--0--0-----|

--> Calm part

Guitar 1 (starts at low volume and then gradatively turns louder)

e ---------------------------------------------------------------------|
B ---------------------------------------------------------------------|
G ---------------------------------------------------------------------|
D ---------------------------------------------------------------------|
A ---------------------------------------------------------------------|
E --4-----4-4---------0-----0-0----2--2---4-----4-4---------0-----0-0--|

Guitar 2

e ------------------------------------|
B ------------------------------------|
G ------3-----------------------------|
D ----3------------------4------------|
A --1------------------4--------------|
E -------------------2----------------|

--> 2nd chorus

Guitar 1

e ---------------------------------------------------------------------|
B ---------------------------------------------------------------------|
G ---------------------------------------------------------------------|
D ---------------------------------------------------------------------|
A ---------------------------------------------------------------------|
E --4-----4-4---------0-----0-0----2--2---4-----4-4---------0-----0-0--|

Guitar 2

e ------------------------------------|
B ------------------------------------|   that's the only thing i can really
G ------3-----------------------------|   hear of the 2nd guitar
D ----3-------------------------------|
A --1---------------------------------|
E ------------------------------------|

--> Bridge

e -----------------------------------|
B -----------------------------------|
G -----------------------------------|
D --6-6-6-6-6-6-6-6-2-2-2-2-2-2-2-2--|
A --6-6-6-6-6-6-6-6-2-2-2-2-2-2-2-2--|
E --4-4-4-4-4-4-4-4-0-0-0-0-0-0-0-0--|

--> Ending I

e ---------------------------------------------------------------------|
B ---------------------------------------------------------------------|
G ---------------------------------------------------------------------|
D ---------------------------------------------------------------------|
A ---------------------------------------------------------------------|
E --4--4--4--4----4-4-4-4--0--0--0--4--4--4--4----4-4-4-4--0--0--0-----|

--> Ending II

e ---------------------------------------------------------------------|
B ---------------------------------------------------------------------|
G ---------------------------------------------------------------------|
D ---------------------------------------------------------------------|
A ---------------------------------------------------------------------|
E --4-----4-4---------0-----0-0----2--2---4-----4-4---------0-----0-0--|
Tap to rate this tab
# A B C D E F G H I J K L M N O P Q R S T U V W X Y Z