Song name
# A B C D E F G H I J K L M N O P Q R S T U V W X Y Z

House Of Fools - Me And Everyone I Know tab

standard tuning.


|--------------------------------------------------------------|
|--------------------------------------------------------------|
|------------------------------9p7-9h12p9h12-----9p7-9h12p9h12-|
|----------9-----------9---9p7---------------9p7---------------|
|-10b-10p8----10b-10p8-----------------------------------------|
|--------------------------------------------------------------|


|-------------------------------------------------------------------------|
|-------------------------------------------------------------------------|
|-------------------------------------------------------------------------|
|-----------------------/16-16-14-12--16-------------------14/16-14-12-16-|
|--------14h15----15-12------------------------15/17-17-15----------------|
|--15-12-------12------------------------15-12----------------------------|


|-------------------------------------------------------------------------|
|-------------------------------------------------------------------------|
|---------------------------------------------------------------------14--|
|--7h9-7h9-7h9-7h9----------------------------------------------b14p12----|
|------------------10h12-10h12-10h12-10h12------12-----12-----12----------|
|------------------------------------------15p12--15p12--15p12------------|
Tap to rate this tab
 
# A B C D E F G H I J K L M N O P Q R S T U V W X Y Z