Song name
# A B C D E F G H I J K L M N O P Q R S T U V W X Y Z

House Of Heroes - In The Valley Of The Dying Sun tab

Artist: House of Heroes
Song: In the Valley of the Dying Sun
Album: The End is Not the End
Tuning: standard(E-A-D-G-B-E)
Tabbed by: John Jeremay

This is my first tab to a great song by my favorite band. God bless and rock on!!!

Intro

E|--5-------4--------5-------| 
B|--7-------6--------7-------| 
G|--6-------5--------6-------| 
D|--4-(x13)-3--(x3)--4-(x14)-| 
A|--x-------x--------x-------|
E|--x-------x--------x-------|

Verse

E|--5-----------9----------5----------9---------5-4-3-2--|
B|--7----------10----------7---------10---------5-4-3-2--|
G|--6-----------9----------6----------9---------6-5-4-3--|
D|--4--(x16)---11--(x16)---4-(x16)---11--(x12)--7-6-5-4--|
A|--x-----------x----------x----------x---------7-6-5-4--|
E|--x-----------x----------x----------x---------5-4-3-2--|

E|--1-1-1-1-1-1-1-1-1-1-1-1-1-2-3-4-5-5-5-5-5-5-5-5-5-5-5-5-5-4-3-2--|
B|--1-1-1-1-1-1-1-1-1-1-1-1-1-2-3-4-5-5-5-5-5-5-5-5-5-5-5-5-5-4-3-2--|
G|--2-2-2-2-2-2-2-2-2-2-2-2-2-3-4-5-6-6-6-6-6-6-6-6-6-6-6-6-6-5-4-3--|
D|--3-3-3-3-3-3-3-3-3-3-3-3-3-4-5-6-7-7-7-7-7-7-7-7-7-7-7-7-7-6-5-4--| repeat 1x
A|--3-3-3-3-3-3-3-3-3-3-3-3-3-4-5-6-7-7-7-7-7-7-7-7-7-7-7-7-7-6-5-4--|
E|--1-1-1-1-1-1-1-1-1-1-1-1-1-2-3-4-5-5-5-5-5-5-5-5-5-5-5-5-5-4-3-2--|

Chorus

E|--------------------------------------------------------------------|
B|-------3--------3-------3-------2-----------------------------------|
G|---------4--------4-------4-------2-----1-------1-------1------1----|
D|-----4--------4-------4-------------------2-------2-------2------1--| repeat 4x
A|---2-------2--------2---------2-------2-------2-------2------0------|
E|----------------------------2-------0-------0-------0------0--------|

Bridge -(distortion)

E|-----------------------------------------------------------------|
B|-----------------------------------------------------------------|
G|-----------------------------------------------------------------|
D|------------------------2-------------------------------2--------|
A|--------------------2-4---4-2-0---------------------2-4---4-2-0--|
E|--2-0-2-0-2-0-2-0-2-------------0-2-0-2-0-2-0-2-0-2--------------|

- to be continued...
Tap to rate this tab
# A B C D E F G H I J K L M N O P Q R S T U V W X Y Z