House Of Heroes - Independence Day For A Petty Thief tab

"Independence Day For a Petty Thief"
by House of Heroes, from the album "Suburba"

This tab includes the main riff and the chorus guitar parts. This is the first time I've 
a tab by figuring out a part of a song by myself, so feedback would be much 
especially if you think something is wrong, but it sounds perfect to me. Enjoy!

Main Riff:

e|-------------------------------------------------|
B|-------------------------------------------------|
G|-------------------------------------------------|
D|-------------------------------------------------|
A|------5-7----------------------------------------|
E|---0-----------0--5-7-----0--3-5--5-0-------0-0--|

Chorus (first time):
e|------------------------------------------------------------|
B|------------------------------------------------------------|
G|------------------------------------------------------------|
D|------------------------------------------------------------|
A|-----------------------------------------------------3-4-5--|
E|---3-0-3-7-7-7-7-7----3-0-7-11-11-11-11-11---0-3-0----------|

Chorus (second time):

e|------------------------------------------------7-5-3----------|
B|--------------------------------------------------------3-4-5--|
G|---------------------------------------------------------------|
D|---------------------------------------------------------------|
A|---------------------------------------------------------------|
E|---3-0-3-7-7-7-7-7----3-0-7-11-11-11-11-11---------------------|
Tap to rate this tab
 
# A B C D E F G H I J K L M N O P Q R S T U V W X Y Z