Song name
# A B C D E F G H I J K L M N O P Q R S T U V W X Y Z

House Of Heroes - Touch This Light tab

I made this tab mostly by ear and by watching some live performances. 
I donít know if it is 100% correct but it sounds right. 
I hope you enjoy! If you cannot figure out the beat so some of the 
parts please watch the official lyric video. 

intro 

main riff
  Lead
e|-19-19-19-19-19--17--16--16-16-14--16-| \
B|--------------------------------------|  \
G|--------------------------------------|   \
D|--------------------------------------|    \
A|--------------------------------------|     \
E|--------------------------------------|      \
 |                                              X3 
 | Rhythm                                      
e|--------------------------------------|      /
B|--------------------------------------|     /
G|-6------------6--8--9----------9---4--|    /
D|-6------------6--8--9----------9---4--|   /
A|-4------------4--6--7----------7---2--|  /
E|--------------------------------------| /

e|--------------------------------------|
B|--------------------------------------|
G|--11B-------------------'-------------|
D|--------------------------------------|
A|--------------------------------------|
E|--------------------------------------|
 | (start to un-bend the string around the ')
 |
e|--------------------------------------|
B|--------------------------------------|
G|--------------------------------------|
D|-4--4--4-4-4-4--4--4-4--4-4--4-4--4-4-|
A|-4--4--4-4-4-4--4--4-4--4-4--4-4--4-4-|
E|-2--2--0-2-2-2--2--0-2--2-0--2-0--2-0-|



verse
(only bass and drums play on the verse)

Pre-Chorus
e|--------------------------------------|
B|--------------------------------------|
G|--11B-------------------'-------------|
D|--------------------------------------|
A|--------------------------------------|
E|--------------------------------------|
 | (start to un-bend the string around the ')
 |
e|--------------------------------------|
B|--------------------------------------|
G|--------------------------------------|
D|-4--4--4-4-4-4--4--4-4--4-4--4-4--4-4-|
A|-4--4--4-4-4-4--4--4-4--4-4--4-4--4-4-|
E|-2--2--0-2-2-2--2--0-2--2-0--2-0--2-0-|

Chorus
(lead and and rhythm play the same thing)
e|--------------------------------------|
B|--------------------------------------|
G|-2----6---4---2----9--------2----6----|
D|-2----6---4---2----9---9----2----6----|
A|-0----4---2---0----7---9----0----4----|
E|-----------------------7--------------|

Post Chorus
e|--------------------------------------|
B|--------------------------------------|
G|--11B-------------------'-------------|
D|--------------------------------------|
A|--------------------------------------|
E|--------------------------------------|
 | 
 |
e|--------------------------------------|
B|--------------------------------------|
G|--------------------------------------|
D|-4--4--4-4-4-4--4--4-4--4-4--4-4--4-4-|
A|-4--4--4-4-4-4--4--4-4--4-4--4-4--4-4-|
E|-2--2--0-2-2-2--2--0-2--2-0--2-0--2-0-|

e|-19-19-19-19-19--17--16--16-16-14--16-| \
B|--------------------------------------|  \
G|--------------------------------------|   \
D|--------------------------------------|    \
A|--------------------------------------|     \
E|--------------------------------------|      \
 | (play e17 at the end of the second lead)     X2 
 |                                       
e|--------------------------------------|      /
B|--------------------------------------|     /
G|-6------------6--8--9----------9---4--|    /
D|-6------------6--8--9----------9---4--|   /
A|-4------------4--6--7----------7---2--|  /
E|--------------------------------------| /

Verse
Pre-Chorus
Chorus
Post Chorus (this time play the end of the end of
the post chorus x4 instead of x2)

bridge

e|-17-17-17-17-17-17-17-17-16-16-16-16-12-12-12-12-|
B|-------------------------------------------------|
G|-------------------------------------------------| X2
D|-------------------------------------------------|
A|-------------------------------------------------|
E|-------------------------------------------------|

e|-16-16-16-16-14-14-14-14-12-12-12-12-11-11-11-11-12-12-12-12-12-12-12-12-11-11-11-11-11---|
B|------------------------------------------------------------------------------------------|
G|------------------------------------------------------------------------------------------|
D|------------------------------------------------------------------------------------------|
A|------------------------------------------------------------------------------------------|
e|------------------------------------------------------------------------------------------|

pre-chorus2

e|--------------------------------------|      
B|--------------------------------------|     
G|-6------------6--8--9----------9---4--|  X2  
D|-6------------6--8--9----------9---4--|   
A|-4------------4--6--7----------7---2--|  
E|--------------------------------------|

chorus

post chorus 2
e|--------------------------------------|
B|--------------------------------------|
G|--11B-------------------'-------------|
D|--------------------------------------|
A|--------------------------------------|
E|--------------------------------------|
 | 
 |
e|--------------------------------------|
B|--------------------------------------|
G|--------------------------------------|
D|-4--4--4-4-4-4--4--4-4--4-4--4-4--4-4-|
A|-4--4--4-4-4-4--4--4-4--4-4--4-4--4-4-|
E|-2--2--0-2-2-2--2--0-2--2-0--2-0--2-0-|

e|-19-19-19-19-19--17--16--16-16-14--16-| \
B|--------------------------------------|  \
G|--------------------------------------|   \
D|--------------------------------------|    \
A|--------------------------------------|     \
E|--------------------------------------|      \
 |                                              X12
 |                                       
e|--------------------------------------|      /
B|--------------------------------------|     /
G|-6------------6--8--9----------9---4--|    /
D|-6------------6--8--9----------9---4--|   /
A|-4------------4--6--7----------7---2--|  /
E|--------------------------------------| /

there is an ending solo that is to hard for me to figure out. 
if any of you know hoe to play it please post it in the corrections! 
(I will put your username under it)
Tap to rate this tab
# A B C D E F G H I J K L M N O P Q R S T U V W X Y Z