Song name
# A B C D E F G H I J K L M N O P Q R S T U V W X Y Z

House Of Heroes - Angels In Top Hatscups Full Of Blood tab

artist:house of heroes
song:angels in top hats,cups full of blood

/=slide

okay,now i don't have it with all the srokes so listen to the song for timeing
okay here it goes

e|--------------------------------------|
B|-14/15 ----15----14/15-----15---------|
G|--------13--------------13------------|(alot)
D|--------------------------------------|
A|--------------------------------------|
E|--------------------------------------|

e|-------------------------------------|
B|-14/15-----18---14/15----18---14-----|
G|--------16------------16-------------|
D|-------------------------------------|
A|-------------------------------------|
E|-------------------------------------|

e|--------------------------------------|
B|-14/15 ----15----14/15-----15---------|
G|--------13--------------13------------|(alot)
D|--------------------------------------|
A|--------------------------------------|
E|--------------------------------------|

e|-----------12------------------------|
B|14/15--------------------------------|
G|-------------------------------------|
D|-------------------------------------|
A|-------------------------------------|
E|-------------------------------------|
E|-------------------------------------|
Tap to rate this tab
 
# A B C D E F G H I J K L M N O P Q R S T U V W X Y Z