Guitaretab - guitar tabs
Song name
# A B C D E F G H I J K L M N O P Q R S T U V W X Y Z

House Of Heroes - Angels On Toop Hats Cups Full Of Blood tab

artist:house of heroes
song: angels in tops hats, cups full of blood
album: house of heroes
gotee records

tr~=trill
b=bend
/=slide
~=hold
..=palm mute

Ok so this song has so many different parts to it,i dont even know what to call all of 
im gonna just put them down as theyre played,listen to the song for timeing :)


After this part the rest of the song starts,though the intro continues
                                               |
e|--------------------------------------|      |
B|-14/15 ----15----14/15-----15---------|      |
G|--------13--------------13------------|(alot)|
D|--------------------------------------|      |
A|--------------------------------------|      |
E|--------------------------------------|      |
                                               |
                                               |
-----------------------------------------------


e|-------------------------------------|
B|-14/15-----18---14/15----18---14-----|
G|--------16------------16-------------|
D|-------------------------------------|
A|-------------------------------------|
E|-------------------------------------|

e|--------------------------------------|
B|-14/15 ----15----14/15-----15---------|
G|--------13--------------13------------|(alot)
D|--------------------------------------|
A|--------------------------------------|
E|--------------------------------------|

e|-----------12------------------------|
B|14/15--------------------------------|
G|-------------------------------------|
D|-------------------------------------|
A|-------------------------------------|
E|-------------------------------------|

D|--------------------------------------|
A|-7-9-7-5-7-2--------------------------|
E|--------------------------------------|


D|--------------------------------------------------|
A|--7-9-7--5--7-5-----------------------------------|
E|---------------------3-5-2---2-2-4--4-4-6--6-6----|9b


D|-7-9-7---5-7-2----7-9-7--5-7-5------------------------|
A|-----------------------------------------5-7-5--3-5-2-|
E|------------------------------------------------------|

D|-------------------------------------------------|
A|-------------------------------------------------|
E|-0-0--2---2-2--4--4-4--6----6bbb-----------------|

    Tr~               ~                ~                ~
D|-5-5----5-5-5--5----5-5-5--5----5-5-5--5-----5-5-5-----|
A|-5-5----5-5-5--5----5-5-5--5----5-5-5--5-----5-5-5-----|
E|-3-3----3-3-3--3----3-3-3--3----3-3-3--3-----3-3-3-----|


    Tr~               ~               ~              ~
D|-4-4---4-4-4--4----4-4-4--4---4-4-4--4--------------------|
A|-4-4---4-4-4--4----4-4-4--4---4-4-4--4----3---------------|
E|-2-2---2-2-2--2----2-2-2--2---2-2-2--2--------5-----------|


e|--------------2---------------------|
B|---2--------2-----------------------|
G|-3---2----2-------------------------|
D|--------1---------------------------|  (2x)
A|------------------------------------|
E|------------------------------------|


e|------------3----3----3----3--3-3-2-|
B|---2------3----3----3----3----------|
G|-3---2--2----2----2----2------------|
D|------------------------------------|
A|------------------------------------|
E|------------------------------------|
E|------------------------------------|

e|--------------2---------------------|
B|---2--------2-----------------------|
G|-3---2----2-------------------------|
D|--------1---------------------------|  (2x)
A|------------------------------------|
E|------------------------------------|


e|--------------5----5----5----5--5-5-3-|
B|---2--------5----5----5----5----------|
G|-3---2----5----5----5----5------------|
D|--------3----3----3----3--------------|
A|--------------------------------------|
E|--------------------------------------|
E|--------------------------------------|

e|--------------2---------------------|
B|---2--------2-----------------------|
G|-3---2----2-------------------------|
D|--------1---------------------------|  (2x)
A|------------------------------------|
E|------------------------------------|

e|-------------7-----7----7----7--7-7-5-|
B|---2-------7-----7----7----7----------|
G|-3---2---7-----7----7----7------------|
D|-------5-----5----5----5--------------|
A|--------------------------------------|
E|--------------------------------------|

e|--------------------------------------|
B|--------------------------------------|
G|-7-7--7-7--7-7--7-7--7-7--7-7--7-7----|1/
D|-7-7--7-7--7-7--7-7--7-7--7-7--7-7----|1/til when ever
A|-5-5--5-5--5-5--5-5--5-5--5-5--5-5----|1/
E|--------------------------------------|


e|-------------------------------------|
B|-------------------------------------|
G|-6~--4~---4~---8~--------------------|
D|-6---4----4----8---------------------| (4x)
A|-4---2----2----6---------------------|
E|-------------------------------------|

e|-------------------------------------|
B|-------------------------------------|
G|-4~------6~--------------------------|
D|-4-------6---------------------------|
A|-2-------4---------------------------|
E|-------------------------------------|
[ Tab from: http://www.guitaretab.com/h/house-of-heroes/81050.html ]
D|-------------------------------------------|
A|---------------------------------------8---|
E|-7-9-7-9-7-9-7-9-7-9-7-9-7-9-7-9-7-9-----7-|

D|-------------------------------------|
A|---------------8---------------------|
E|-7-9--7-9--7-9---7-7-9-7-9--7-9------|


Play this around 7x
D|-11---9------------------------------|
A|-11---9------------------------------|
E|-11---9------------------------------|

D|---7-------------------------------|
A|-9---8-10--------------------------| (6x)
E|-----------------------------------|
p.m. . . ..


D|---------------4-6-4--3-2-1--|
A|---7-9-7--5-7----------------| (2x)
E|-9---------------------------|


D|-x-x-x-x-x-x--9--x-x-x-x-x-x9/7--------|
A|-x-x-x-x-x-x--9--x-x-x-x-x-x9/7--------|
E|-x-x-x-x-x-x--7--x-x-x-x-x-x7/5--------|


These play at the same time, just choose the one you want to play:
Either one play a lot though
                                                |
e|-------------------------------------         |
B|-------------------------------------         |
G|-6~--4~---4~---8~--------------------         |
D|-6---4----4----8---------------------         |
A|-4---2----2----6---------------------         |
E|-------------------------------------         |

                                                |
D|---------------4-6-4--3-2-1--                 |
A|---7-9-7--5-7----------------                 |
E|-----------------------------                 |
                                                |
------------------------------------------------


D|-x-x-x-x-x-x--9--7--3--x-x-x-x-x-x--9-10--9--7-|
A|-x-x-x-x-x-x--9--7--3--x-x-x-x-x-x--9-10--9--7-|
E|-x-x-x-x-x-x--7--5--1--x-x-x-x-x-x--7-8---7--5-|


e|----------------------------------------|
B|----------------------------------------|
G|-4-4-4-4-4-4-4-4-4-4-4-4---6-8--6-6-----|
D|-4-4-4-4-4-4-4-4-4-4-4-4---6-8--6-6-6---|
A|-2-2-2-2-2-2-2-2-2-2-2-2---4-6--4-4-6---|
E|------------------------------------4---|

e|--------------7p5---------------------11-|
B|---7-5------7----5-7------------------11-|
G|-7-----7--7----------6-7-9/10-9-10-11-11-|
D|-----------------------------------------|
A|-----------------------------------------|
E|-----------------------------------------|


e|-------------------------------------|
B|-------------------------------------|
G|-6~--4~---4~---8~--------------------|
D|-6---4----4----8---------------------|  (8x)
A|-4---2----2----6---------------------|
E|-------------------------------------|

e|-------------------------------------|
B|-------------------------------------|
G|-4~------6~--------------------------|
D|-4-------6---------------------------|
A|-2-------4---------------------------|
E|-------------------------------------|

e|-------------------------------------|
B|-------------------------------------|
G|-----------------------------5-7-7-4-|
D|-9-9/7--7-9-7-5--5-5-5--7-4----------|
A|-9-9/7-------------------------------|
E|-7-7/5-------------------------------|

Play this however many times
e|-----------------------------------|
B|-----------------------------------|
G|-----------------------------------|
D|-----9--7-5------------------------|
A|-7---------------------------------|
E|-----------------------------------|


D|----------7-8-7-6-4----------------|
A|-7-9-7-6---------------------------|
E|-----------------------------------|

D|-----9--7-5------------------------|
A|-7---------------------------------|
E|-----------------------------------|


e|-----------------------------------|
B|-----------------------------------|
G|----9-7-5-3/9----------------------|
D|-9--9-7-5-3/9----------------------| (4x)
A|-9--7-5-3-1/7----------------------|
E|-7---------------------------------|

e|-----------------------------------|
B|-----------------------------------|
G|-9-9-9-9-9-------------------------|
D|-9-9-9-9-9------(pause/whispering)-|
A|-7-7-7-7-7-------------------------|
E|-----------------------------------|

D|-9----------7-7-7-7-7/8------------|
A|-9-(a lot)--7-7-7-7-7/8------------| (a lot)
E|-7----------5-5-5-5-5/6------------|

D|-----12------10-12----10-12--9-10-9-|
A|-10-------10-------10---------------|
E|------------------------------------|

D|----10--12----10-12----10-12-13-----|
A|-10--------10-------10--------------|
E|------------------------------------|

------------------------------------------------
                                               |
Play this part a lot:                          |
                                               |
D|----10-12----10-12----10-12-9-10-9-          |
A|-10-------10-------10--------------          |
E|-----------------------------------          |
                                               |
D|----10--12----10-12----10-12-13-----         |
A|-10--------10-------10--------------         |
E|------------------------------------         |
                                               |
------------------------------------------------

now all of the rest of this I cant hear if you know what it is then plz e-mail me and  Ill fix it

here are two parts  near the end, play this:

e|--12/till when ever----------


D|-----3/til when ever------------|
A|---2----------------------------|
E|-1------------------------------|

Plz rate and e-mail me if you have any questions, corrections or what ever else Brain2you@gmail.com
Related for Angels On Toop Hats Cups Full Of Blood tab