House Of Lords - Metallic Blue tab

Ok so nobody has posted this song on here and its pretty bitchin so heres the intro 
dallas).
The open E should be palm muted to get the right sound and throw down some harmonics if 
feelin good.

For those of you who dont know this band:
http://en.wikipedia.org/wiki/House_of_Lords_(band)

e|--------------------------------------------------------------------------|
B|--------------------------------------------------------------------------|
G|--------------------------------------------------------------------------|
D|--6-----------------------------------------------------------------------|
A|------7---9---6--7---9----------------------------------------------------|
E|----0---0---0------0----0-9-0-7-0-0---------------------------------------|

e|--------------------------------------------------------------------------|
B|--------------------------------------------------------------------------|
G|--------------------------------------------------------------------------|
D|--6-----------------------------------------------------------------------|
A|------7---9---6--7---9---4---2--------------------------------------------|
E|----0---0---0------0---0---0---0-0----------------------------------------|
Tap to rate this tab
 
# A B C D E F G H I J K L M N O P Q R S T U V W X Y Z