Song name
# A B C D E F G H I J K L M N O P Q R S T U V W X Y Z

House Vs Hurricane - Colour Space tab

-------------------------------------------------------------------------------
			     COLOUR SPACE - House Vs. Hurricane
-------------------------------------------------------------------------------

Tabbed by: Corbin Nesa
Email: c_nesa@hotmail.com

Tuning: drop C (C,G,C,F,A,D)

Note: The intro sounds as if it is played using slides on the F string but
 its easier to use a hammer on, That way you can just barre the ninth fret
 with your index finger.
Intro is played with some reverb

| /   slide up
| \   slide down
| h   hammer-on
| p   pull-off
| ~   vibrato
| +   harmonic
| x   Mute note
| (x) let note ring

Guitar 1 [0:00]-[0:07]
D|-------------------------------------------| X2    
A|-----------------9-----------10p9----------|
F|---------9--(9)----9/11-----------9/11-----|
C|----11------------------9h11-----------11--|
G|--9----9-----------------------------------|
C|-------------------------------------------|

Guitar 1 [0:07]-[0:14]
|---------------------------17p16-------------------| X2
|-------17------------------------17-14h17----------|
|----16------16/18-------------------------16-(16)--|
|--0-----------------19-----------------------------|
|---------------------------------------------------|
|---------------------------------------------------|

Guitar 1 [0:14]-[0:21]
|-------------------------------------------| X2
|-----------------9-----------10p9----------|
|---------9--(9)----9/11-----------9/11-----|
|----11------------------9h11-----------11--|
|--9----9-----------------------------------|
|-------------------------------------------|

Guitar 1 [0:21]-[0:28]
|---------------------------17p16-------------------| X2
|-------17------------------------17-14h17----------|
|----16------16/18-------------------------16-(16)--|
|--0-----------------19-----------------------------|
|---------------------------------------------------|
|---------------------------------------------------|

Guitar 1 [0:30]-[0:36]
|------------------------------------------------------------|
|--------------17--17p14--(14)--------------17--17-----------|
|--14-(14)/16-------------------14-(14)/16-------------------|
|---------------------------------------------------18-(18)--|
|------------------------------------------------------------|
|------------------------------------------------------------|



Guitar 2 [0:38]-[0:42]
|---------------------------------------------------|
|--9--9--9--9--9--9--9--9--9--9--9--9--9--9--9--9---|
|--9--9--9--9--9--9--9--9--9--9--9--9--9--9--9--9---|
|--11-11-11-11-11-11-11-11-11-11-11-11-11-11-11-11--|
|--9--9--9--9--9--9--9--9--9--9--9--9--9--9--9--9---|
|---------------------------------------------------|

Guitar 1 [0:38]-[0:42]
|---------------------------------------------------|
|---------------------------------------------------|
|---------------------------------------------------|
|---------------------------------------------------|
|---------------------------------------------------|
|---------------------------------------------------|



Guitar 2 [0:42]-[0:46]
|---------------------------------------------------|
|--9--9--9--9--9--9--9--9--9--9--9--9--9--9--9--9---|
|--9--9--9--9--9--9--9--9--9--9--9--9--9--9--9--9---|
|--11-11-11-11-11-11-11-11-11-11-11-11-11-11-11-11--|
|--9--9--9--9--9--9--9--9--9--9--9--9--9--9--9--9---|
|---------------------------------------------------|

Guitar 1 [0:42]-[0:46]
|---------------------------------------------------|
|--10p9---------------------------------------------|
|--------9----------11------------------------------|
|-----------9h11----------------------9-9-9-9-9-9---|
|---------------------------------------------------|
|---------------------------------------------------|

Guitar 1 [0:46]-[0:53]
|------------------------16--------16---------------| X2
|--17-----------------------17--------17--17--------|
|------16/18----------------------------------------|
|-------------19------------------------------------|
|---------------------------------------------------|
|---------------------------------------------------|



Guitar 2 [0:53]-[0:57]
|---------------------------------------------------|
|--9--9--9--9--9--9--9--9--9--9--9--9--9--9--9--9---|
|--9--9--9--9--9--9--9--9--9--9--9--9--9--9--9--9---|
|--11-11-11-11-11-11-11-11-11-11-11-11-11-11-11-11--|
|--9--9--9--9--9--9--9--9--9--9--9--9--9--9--9--9---|
|---------------------------------------------------|

Guitar 1 [0:53]-[0:57]
|---------------------------------------------------|
|--10p9---------------------------------------------|
|--------9----------11------------------------------|
|-----------9h11------------------------------------|
|---------------------------------------------------|
|---------------------------------------------------|



Guitar 2 [0:57]-[1:01]
|---------------------------------------------------|
|--9--9--9--9--9--9--9--9--9--9--9--9--9--9--9--9---|
|--9--9--9--9--9--9--9--9--9--9--9--9--9--9--9--9---|
|--11-11-11-11-11-11-11-11-11-11-11-11-11-11-11-11--|
|--9--9--9--9--9--9--9--9--9--9--9--9--9--9--9--9---|
|---------------------------------------------------|

Guitar 1 [0:57]-[1:01]
|---------------------------------------------------|
|--10p9---------------------------------------------|
|--------9----------11------------------------------|
|-----------9h11----------------------9-9-9-9-9-9---|
|---------------------------------------------------|
|---------------------------------------------------|

Guitar 1 [1:01]-[1:08]
|------------------------16--------16---------------| X2
|--17-----------------------17--------17--17--------|
|------16/18----------------------------------------|
|-------------19------------------------------------|
|---------------------------------------------------|
|---------------------------------------------------|

Guitar 2 [1:08]-[1:11]
|---------------------------------------------------|
|--9--9--9--9--9--9--9--9--9--9--9--9--9--9--9--9---|
|--9--9--9--9--9--9--9--9--9--9--9--9--9--9--9--9---|
|--11-11-11-11-11-11-11-11-11-11-11-11-11-11-11-11--|
|--9--9--9--9--9--9--9--9--9--9--9--9--9--9--9--9---|
|---------------------------------------------------|

Guitar 1 [1:08]-[1:11]
|---------------------------------------------------|
|--10p9---------------------------------------------|
|--------9----------11------------------------------|
|-----------9h11------------------------------------|
|---------------------------------------------------|
|---------------------------------------------------|

Guitar 2 [1:11]-[1:14]
|---------------------------------------------------|
|--9--9--9--9--9--9--9--9--9--9--9--9--9--9--9--9---|
|--9--9--9--9--9--9--9--9--9--9--9--9--9--9--9--9---|
|--11-11-11-11-11-11-11-11-11-11-11-11-11-11-11-11--|
|--9--9--9--9--9--9--9--9--9--9--9--9--9--9--9--9---|
|---------------------------------------------------|

Guitar 1 [1:11]-[1:14]
|---------------------------------------------------|
|--10p9---------------------------------------------|
|--------9----------11------------------------------|
|-----------9h11----------------------9-9-9-9-9-9---|
|---------------------------------------------------|
|---------------------------------------------------|

Guitar 1 [1:14]-[1:21]
|------------------------16--------16---------------| X2
|--17-----------------------17--------17--17--------|
|------16/18----------------------------------------|
|-------------19------------------------------------|
|---------------------------------------------------|
|---------------------------------------------------|



Guitar 2 [1:21]-[1:26]
|---------------------------------------------------|
|--9---(9)------------------------------------------|
|--9---(9)------------------------------------------|
|--11--(11)-----------------------------------------|
|--9---(9)------------------------------------------|
|---------------------------------------------------|


They don't have an official website but they are signed under
El Shaddai Records. Their myspace is www.myspace.com/housevshurricane
Tap to rate this tab
 
# A B C D E F G H I J K L M N O P Q R S T U V W X Y Z