Song name
# A B C D E F G H I J K L M N O P Q R S T U V W X Y Z

House Vs Hurricane - Colour Space tab

House vs Hurricane - Colour Space
*E standard version*
by Dan Roth ;)

--------------------------------------------------|
-----------7\3/5-----8\7--------------------------|
-------7-----------------7/9----------------------|
---5-------------7/9---------7--------------------|
-7---7--------------------------------------------|
--------------------------------------------------|

--10-5/7-----15-14--------------------------------|
---------8---------15-12h15-----------------------|
-9-------------------------14---------------------|
--------------------------------------------------|
--------------------------------------------------|
--------------------------------------------------|

------10-7--------10------------------------------|
-8/10--------8/10----7----------------------------|
--------------------------------------------------|
--------------------------------------------------|
--------------------------------------------------|
--------------------------------------------------|
Tap to rate this tab
# A B C D E F G H I J K L M N O P Q R S T U V W X Y Z