Guitaretab - guitar tabs
Song name
# A B C D E F G H I J K L M N O P Q R S T U V W X Y Z

Houston Calls - A Bottle Of Red A Bottle Of Spite tab

Just thought i would tab the keyboard intro to this song coz its fun to play.
Enjoy :)
[ Tab from: http://www.guitaretab.com/h/houston-calls/114350.html ]
E|-------------------|
B|---8-6-5-------5---|
G|--5------7-5-7---5-|
D|-7-----------------|
A|-------------------|
D|-------------------|

E|-----8-7-------5---|
B|---5----8-5-8---8--|
G|-5-----------------|
D|-------------------|
A|-------------------|
D|-------------------|
Related for A Bottle Of Red A Bottle Of Spite tab
×
Best way to learn
"A Bottle Of Red A Bottle Of Spite"