Guitaretab - guitar tabs
Song name
# A B C D E F G H I J K L M N O P Q R S T U V W X Y Z

Houston Calls - Bob And Bonnie tab

Bob and Bonnie
This is my favourite song from the album, I'm pretty sure this is almost all right but
you've got any corrections, please email or make a comment.

Drop D Tuning

*- Palm-muted
x- scratch
h- hammer-on
p- pull-off
b- bend
- slide down
/- slide up
~- ring/ vibrato

Intro
E|---------------------|
B|---------------------|
G|--77-----------------|
D|--77--55-5-5-5-xx-55-|
A|--55--55-5-5-5-xx-55-|
D|------55-5-5-5-xx-55-|

Verse 1
Guitar 1
E|---------------------------------------------------------------------|
B|---------------------------------------------------------------------|
G|-7777777777777777----------------------------------------------------|
D|-7777777777777777-7777777777777777-9999999999999999-5555555555555555-|
A|-5555555555555555-7777777777777777-9999999999999999-5555555555555555-|
D|------------------7777777777777777-9999999999999999-5555555555555555-|
   **************** **************** **************** ****************

E|---------------------------------------------------------------------|
B|---------------------------------------------------------------------|
G|-----------------------------------7777777777777777------------------|
D|-9999999999999999-5555555555555555-7777777777777777-7777777777777777-|
A|-9999999999999999-5555555555555555-5555555555555555-7777777777777777-|
D|-9999999999999999-5555555555555555------------------7777777777777777-|
   **************** **************** ** ** * ** **    ************

Guitar 2
E|--------------------------------------------------------------------------|
B|-10-10-10-8-8-8-7-7-----------------10-10-10-8-8-8-7-7--------------------|
G|--------------------9-9-9-7-7-7-9-9--------------------9-9-9-11-11-11-9-9-|
D|--------------------------------------------------------------------------|
A|--------------------------------------------------------------------------|
D|--------------------------------------------------------------------------|

E|------------------------------------------------------------------------------------------|
B|-----------------------------------------15-15-15----------------15-15-15-----------------|
G|-7-7-7-9-9-9-9-9-12-12-12-11-11-11-12-12----------12-12-12-11-11----------12-12-12-11h12--|
D|------------------------------------------------------------------------------------------|
A|------------------------------------------------------------------------------------------|
D|------------------------------------------------------------------------------------------|

E|-----------------------------------|
B|-----------------------------------|
G|-7777777777777777------------------|
D|-7777777777777777-7777777777777777-|
A|-5555555555555555-7777777777777777-|
D|------------------7777777777777777-|
   ** ** * ** **    ************

Pre-chorus
Guitar 1
E|-------------------------------------------------------------------------|
B|-------------------------------------------------------------------------|
G|-4444-4444-444------7777-----77-x-777-x-777-x-777-x-7--------------------|
D|-4444-4444-444-5555-7777-555-77-x-777-x-777-x-777-x-7-77-x-7777777777777-|
A|-2222-2222-222-5555-5555-555-55-x-555-x-555-x-555-x-5-77-x-7777777777777-|
D|---------------5555------555--------------------------77-x-7777777777777-|

E|--------------------------------|
B|--------------------------------|
G|-4444-4444-444---------------7~-|
D|-4444-4444-444-5555-5555-555-7~-|
A|-2222-2222-222-5555-5555-555-5~-|
D|---------------5555-5555-555----|

Guitar 2
E|----------------------------------------------------------------------------------------------|
B|----------12-12-12----------12-12-12-12-12-12-12-12p10-10-10-10-10-12p10-10-10-10-10-12p10-10-|
G|-11-11-11----------11-11-11-------------------------------------------------------------------|
D|----------------------------------------------------------------------------------------------|
A|----------------------------------------------------------------------------------------------|
D|----------------------------------------------------------------------------------------------|

E|---------------------------------------------|
B|---------------------------------------------|
G|-77-x-777-x-777-x-777-x-7--------------------|
D|-77-x-777-x-777-x-777-x-7-77-x-7777777777777-|
A|-55-x-555-x-555-x-555-x-5-77-x-7777777777777-|
e|--------------------------77-x-7777777777777-|

E|----------------------------------------------------------------------------------------------|
B|----------12-12-12----------12-12-12-12-12-12-12-12p10-10-10-10-10-12p10-10-10-10-10-12p10-10-|
G|-11-11-11----------11-11-11-------------------------------------------------------------------|
D|----------------------------------------------------------------------------------------------|
A|----------------------------------------------------------------------------------------------|
D|----------------------------------------------------------------------------------------------|

Chorus:
Guitar 2, Guitar 1 joins in the 2nd time
E|-----------------------------------|
B|-----------------------------------|
G|-7777-------------7777-------------| x2
D|-7777-555-999-777-7777-555-777-777-|
A|-5555-555-999-777-5555-555-777-777-|
D|------555-999-777------555-777-777-|
   **** *** *** *** **** *** *** ***

Post- Chorus
Guitar 1
E|---------------------------------------------------------------------|
B|---------------------3~----------------------------------------------|
G|---------------------0~----------------------------------------------|
D|-55-----5-5-5-555-00-0~--0-0-0-000-55-----5-5-5-555-77-----7-7-7-777-|
A|-55-----5-5-5-555-00-----0-0-0-000-55-----5-5-5-555-77-----7-7-7-777-|
D|-55-----5-5-5-555-00-----0-0-0-000-55-----5-5-5-555-77-----7-7-7-777-|
                                                                   ***
Guitar 2
E|---------------------------------------------------------------------|
B|---3-3~-3-3-3-333--------------------3-3~-3-3-3-333------------------|
G|---0-0~-0-0-0-000---7-7~-7-7-7-777---0-0~-0-0-0-000---7-7~-7-7-7-777-|
D|---0-0~-0-0-0-000---4-4~-4-4-4-444---0-0~-0-0-0-000---4-4~-4-4-4-444-|
A|--------------------5-5~-5-5-5-555--------------------5-5~-5-5-5-555-|
D|---------------------------------------------------------------------|

Verse 2
Guitar 1
E|---------------------------------------------------------------------|
B|---------------------------------------------------------------------|
G|-7777777777777777----------------------------------------------------|
D|-7777777777777777-7777777777777777-9999999999999999-5555555555555555-|
A|-5555555555555555-7777777777777777-9999999999999999-5555555555555555-|
D|------------------7777777777777777-9999999999999999-5555555555555555-|
   **************** **************** **************** ****************

E|-----------------------------------------------------------------------|
B|-----------------------------------------------------------------------|
G|-7-9p7-7--7-9p7-7--------------------7777777777777777------------------|
D|------------------7-7-9p7-7--7-9p7-7-7777777777777777-7777777777777777-|
A|-------------------------------------5555555555555555-7777777777777777-|
D|------------------------------------------------------7777777777777777-|
                                       ** ** * ** **    ************
[ Tab from: http://www.guitaretab.com/h/houston-calls/64225.html ]
Guitar 2
E|--------------------------------------------------------------------------|
B|-10-10-10-8-8-8-7-7-----------------10-10-10-8-8-8-7-7--------------------|
G|--------------------9-9-9-7-7-7-9-9--------------------9-9-9-11-11-11-9-9-|
D|--------------------------------------------------------------------------|
A|--------------------------------------------------------------------------|
D|--------------------------------------------------------------------------|

E|----------------------------------------------------------------------------------------|
B|-----------------------------------------15-15-15----------------15------15-------------|
G|-7-7-7-9-9-9-9-9-12-12-12-11-11-11-12-12----------12-12-12-11-11---12p11---12p11-11h12--|
D|----------------------------------------------------------------------------------------|
A|----------------------------------------------------------------------------------------|
D|----------------------------------------------------------------------------------------|

E|-----------------------------------|
B|-----------------------------------|
G|-7777777777777777------------------|
D|-7777777777777777-7777777777777777-|
A|-5555555555555555-7777777777777777-|
D|------------------7777777777777777-|
   ** ** * ** **    ************

Pre-chorus
Guitar 1
E|-------------------------------------------------------------------------|
B|-------------------------------------------------------------------------|
G|-4444-4444-444------7777-----77-x-777-x-777-x-777-x-7--------------------|
D|-4444-4444-444-5555-7777-555-77-x-777-x-777-x-777-x-7-77-x-7777777777777-|
A|-2222-2222-222-5555-5555-555-55-x-555-x-555-x-555-x-5-77-x-7777777777777-|
D|---------------5555------555--------------------------77-x-7777777777777-|

E|--------------------------------|
B|--------------------------------|
G|-4444-4444-444---------------7~-|
D|-4444-4444-444-5555-5555-555-7~-|
A|-2222-2222-222-5555-5555-555-5~-|
D|---------------5555-5555-555----|

Guitar 2
E|----------------------------------------------------------------------------------------------|
B|----------12-12-12----------12-12-12-12-12-12-12-12p10-10-10-10-10-12p10-10-10-10-10-12p10-10-|
G|-11-11-11----------11-11-11-------------------------------------------------------------------|
D|----------------------------------------------------------------------------------------------|
A|----------------------------------------------------------------------------------------------|
D|----------------------------------------------------------------------------------------------|

E|---------------------------------------------|
B|---------------------------------------------|
G|-77-x-777-x-777-x-777-x-7--------------------|
D|-77-x-777-x-777-x-777-x-7-77-x-7777777777777-|
A|-55-x-555-x-555-x-555-x-5-77-x-7777777777777-|
e|--------------------------77-x-7777777777777-|

E|----------------------------------------------------------------------------------------------|
B|----------12-12-12----------12-12-12-12-12-12-12-12p10-10-10-10-10-12p10-10-10-10-10-12p10-10-|
G|-11-11-11----------11-11-11-------------------------------------------------------------------|
D|----------------------------------------------------------------------------------------------|
A|----------------------------------------------------------------------------------------------|
D|----------------------------------------------------------------------------------------------|
Chorus 2(the bass plays the chords for the first time here, if you have a third guitar 
the third guitar can play the chords)
Guitar 1
E|-----------------------------------|-----------------------------------|
B|-----------------------------------|-----------------------------------|
G|-(7~)-------------7777-------------|-7777-------------7777-------------|
D|-(7~)-------------7777-555-7777777-|-7777-555-999-777-7777-555-777-777-|
A|-(5~)-------------5555-555-7777777-|-5555-555-999-777-5555-555-777-777-|
D|-----------------------555-7777777-|------555-999-777------555-777-777-|

Guitar 2
E|------------------------------------------------|-----------------------------------|
B|------------------------------------------------|-----------------------------------|
G|-7-7--------7777---------------7777-------------|-7777-------------7777-------------|
D|-7-7--------7777-555-999-777---7777-555-7777777-|-7777-555-999-777-7777-555-777-777-|
A|-5-50h5~---5555-555-999-777-0h5555-555-7777777-|-5555-555-999-777-5555-555-777-777-|
D|-----------------555-999-777--------555-7777777-|------555-999-777------555-777-777-|
              **** *** *** ***
Bridge
Guitar 1
very fast palm-muting here, figure out how many are played

E|---------------------------------------------------------------------------------|
B|--------8p7---------8p7-----|----------------------------------------------------|
G|-777-7~----7-7~--------7-7~-|-7777777777777777777777777444444444447777777777777--|
D|-777-7~------7~----------7~-|-7777777777777777777777777444444444447777777777777--|
A|-555-5~---------------------|-5555555555555555555555555222222222225555555555555--|
D|----------------------------|----------------------------------------------------|
   ***                          *************************************************

E|---------------------------------|
B|---------------------------------|
G|---------------------------------|
D|-55----5-5-5-555-77----7-7-77777-|
A|-55----5-5-5-555-77----7-7-77777-|
D|-55----5-5-5-555-77----7-7-77777-|

Guitar 2
E|-----------------------------------------------------------|---------------|
B|-----------------------------------------------------------|---------------|
G|-7777~----------------------------------------------------|-7~-------------|
D|-7777~-5555555555555555-9999999999999999-5555555555555555-|-7~-5~-9~-5~----|
A|-5555~-5555555555555555-9999999999999999-5555555555555555-|-5~-5~-9~-5~----|
D|--------5555555555555555-9999999999999999-5555555555555555-|----5~-9~-5~---|
          **************** **************** ****************

E|-Also very fast palm-muting and figure out how many played----------|
B|--------------------------------------------------------------------|
G|-7777777777777------------------------------------------------------|
D|-777777777777755555555555555999999999999999999995555555555555555555-|
A|-555555555555555555555555555999999999999999999995555555555555555555-|
D|--------------55555555555555999999999999999999995555555555555555555-|
   ******************************************************************

E|---------------------------------|
B|---------------------------------|
G|---------------------------------|
D|-55----5-5-5-555-77----7-7-77777-|
A|-55----5-5-5-555-77----7-7-77777-|
D|-55----5-5-5-555-77----7-7-77777-|

Final Chorus
Guitar 1
E|-----------------------------------|
B|-----------------------------------|
G|-7777-------------7777-------------| x2
D|-7777-555-999-777-7777-555-777-777-|
A|-5555-555-999-777-5555-555-777-777-|
D|------555-999-777------555-777-777-|


E|---------------------------------------------------------------------|
B|---------------------------------------------------------------------|
G|-----------------------------------7777-------------7777-------------|
D|-----------------------------------7777-555-999-777-7777-555-777-777-|
A|-555555555555/9-7-555555555555/7-9-5555-555-999-777-5555-555-777-777-|
D|----------------------------------------555-999-777------555-777-777-|

Guitar 2
E|-----------------------------------|
B|-----------------------------------|
G|-7777-------------7777-------------| x4
D|-7777-555-999-777-7777-555-777-777-|
A|-5555-555-999-777-5555-555-777-777-|
D|------555-999-777------555-777-777-|

Ending
Guitar 1 & 2
E|------------|
B|------------|
G|-7~-77~--7~-|
D|-7~-77~--7~-|
A|-5~-55~--5~-|
D|------------|
Related for Bob And Bonnie tab