Song name
# A B C D E F G H I J K L M N O P Q R S T U V W X Y Z

Houston Calls - Better Part Of Valor tab

this is my very first tab ive done all by myself, so its not gona be that good. so any 
are always good. i could only get some parts of the song. if u guys want to help and 
this ill apreciate it.

this song is in drop-d


Intro

Guitar 1
e|-----------------|
B|-----------------|
G|-----7----7------|
D|-----------------|
A|---55-5-55-5-----|
D|-----------------|
PM.  .... ....     slight palm mute

Guitar 2-this comes in right before the second part of the intro
e|-------------------------|
B|-------------------------|
G|-----1414141414141414----|
D|-----x-x-x-x-x-x-x-x-----|
A|-----1212121212121212----|
D|-------------------------| 12's and 14's


Intro 2

Guitar 1
e|------------------------------------------|
B|------------------------------------------|
G|------------------------------------------|
D|----55555555-77777777-99999999-9999xxxx---|
A|----55555555-77777777-99999999-9999xxxx---|
D|----55555555-77777777-99999999-9999xxxx---|

e|------------------------------------------|
B|------------------------------------------|
G|------------------------------------------|
D|----55555555-77777777-99999999-77777777---|
A|----55555555-77777777-99999999-77777777---|
D|----55555555-77777777-99999999-77777777---|

Guitar 2-i dont know all of it but this is the part i know
e|--------------|
B|--------------|
G|---11-12-14---|
D|----x-x--x----|
A|----9-10-12---|
D|--------------|

verse

part one

both guitars
e|-----------------------------------------|
B|-----------------------------------------|
G|------------77777777-99999999------------|
D|---99999999-77777777-99999999-77777777---|
A|---99999999-55555555-77777777-77777777---|
D|---99999999-------------------77777777---|
PM.  ........ ........ ........ ......

then this part i cant figure anything out for guitar 2

part two

guitar 1
e|-------------|
B|-------------|
G|-------------|
D|---0~---5~---|
A|---0~---5~---|
D|---0~---5~---|

Chorus

both guitars
e|----------------------------------------|
B|----------------------------------------|
G|----------------------------------------|
D|---9999999-55555555-00000000-77777777---|
A|---9999999-55555555-00000000-77777777---|
D|---9999999-55555555-00000000-77777777---|

e|----------------------------------------|
B|----------------------------------------|
G|----------------------------------------|
D|---9999999-55555555-00000000-7~---------|
A|---9999999-55555555-00000000-7~---------|
D|---9999999-55555555-00000000-7~---------|
the second part is the same exept you palm mute some of the zeros at the end

verse 2
the first part of this is the same as the first verse, exept at the end of the first 
of the verse it ends with the 7's without palm mute, figure out strumming yourself

second part
both guitars
e|-----------------------------------------------|
B|-----------------------------------------------|
G|-----------------------------------------------|
D|---55-55-5~-00-00-0~-99-99-9~-77-77-77777777---|
A|---55-55-5~-00-00-0~-99-99-9~-77-77-77777777---|
D|---55-55-5~-00-00-0~-99-99-9~-77-77-77777777---|

part two of first verse

chorus

bridge or whatever, i have no clue

then chorus
and end it with the second intro
end on
e|--------|
B|--------|
G|--------|
D|---7~---|
A|---7~---|
D|---7~---|
Tap to rate this tab
 
# A B C D E F G H I J K L M N O P Q R S T U V W X Y Z