Song name
# A B C D E F G H I J K L M N O P Q R S T U V W X Y Z

Houston Calls - Elephant And Castle tab

-------------------------------------------------------------------------------
			     Elephant and Castle - Houston Calls
-------------------------------------------------------------------------------
Tabbed by:Zach Evans
Email: zache57@suddenlink.net

Tuning: standard


Intro: Guitar 1
e|----------------------------------------------------------------------------|
B|----------------------------------------------------------------------------|
G|-----444-------444--------444---------444---------444------444---444----4--4|
D|----------------------------------------------------------------------------|
A|-444----444-444----444-222----222--222----222--000---000-000---000----00-00-|
E|----------------------------------------------------------------------------|
   ***    *** ***    *** ***    ***  ***    ***  ***   *** ***   ***    ** **

Guitar 2
e|---------------------------------------------------------------------------|
B|---------------------------------------------------------------------------|
G|------------------------------------------------22222222222222-------------|
D|------------------------------------------------22222222222222-------------|
A|------------------------------------------------00000000000000-------------|
E|---------------------------------------------------------------------------|
                                                  **************
Verse 1 Guitar 1 (Play twice)
e|---------------------------------------------------------------------------|
B|---------------------------------------------------------------------------|
G|-66-666666666666-44-444444444444--22-222222222222-22-222222222222----------|
D|-66-666666666666-44-444444444444--22-222222222222-22-222222222222----------|
A|-44-444444444444-22-222222222222--00-000000000000-00-000000000000----------|
E|---------------------------------------------------------------------------|
      ************    ************     ************    ************

GUitar 2 (Play during second half of verse)
e|---------------------------------------------------------------------------|
B|---------------------------------------------------------------------------|
G|---------------------------------------------------------------------------|
D|--6-6-6-6-6h7p6-4-4-4-4-4h7p4-2-2-2-2--------------------------------------|
A|---------------------------------------------------------------------------|
E|---------------------------------------------------------------------------|

Bridge: Guitar 1
e|---------------------------------------------------------------------------|
B|---------------------------------------------------------------------------|
G|---------------------------------------------------------------------------|
D|-6-6-6666-6-6-6666-4-4-4444-4-4-4444-2-2-2222-2-2-2222-2-2-2222-2-2-2222---|
A|-4-4-4444-4-4-4444-2-2-2222-2-2-2222-0-0-0000-0-0-0000-0-0-0000-0-0-0000---|
E|---------------------------------------------------------------------------|

Guitar 2
e|---------------------------------------------------------------------------|
B|---------------------------------------------------------------------------|
G|-6-6-6666-6-6-6666-8-8-8888-8-8-8888-9-9-9999-8-8-8888-9-9-9999--999-------|
D|-x-x-xxxx-x-x-xxxx-x-x-xxxx-x-x-xxxx-x-x-xxxx-x-x-xxxx-x-x-xxxx--xxx-------|
A|-4-4-4444-4-4-4444-6-6-6666-6-6-6666-7-7-7777-6-6-6666-7-7-7777--777-------|
E|---------------------------------------------------------------------------|

Verse 2 Guitar 1 (Play twice)
e|---------------------------------------------------------------------------|
B|---------------------------------------------------------------------------|
G|-66-666666666666-44-444444444444--22-222222222222-22-222222222222----------|
D|-66-666666666666-44-444444444444--22-222222222222-22-222222222222----------|
A|-44-444444444444-22-222222222222--00-000000000000-00-000000000000----------|
E|---------------------------------------------------------------------------|
      ************    ************     ************    ************

GUitar 2 (Play during second half of verse)
e|---------------------------------------------------------------------------|
B|---------------------------------------------------------------------------|
G|---------------------------------------------------------------------------|
D|--6-6-6-6-6h7p6-4-4-4-4-4h7p4-2-2------------------------------------------|
A|---------------------------------------------------------------------------|
E|---------------------------------------------------------------------------|

Guitar 3 (play second half of verse)
e|---------------------------------------------------------------------------|
B|---------------------------------------------------------------------------|
G|--------4--------4-------4------4/6----------------------------------------|
D|-------2--------2-------2------2-------------------------------------------|
A|------4--------2-------0------0--------------------------------------------|
E|---------------------------------------------------------------------------|

Bridge: Guitar 1
e|---------------------------------------------------------------------------|
B|---------------------------------------------------------------------------|
G|---------------------------------------------------------------------------|
D|-6-6-6666-6-6-6666-4-4-4444-4-4-4444-2-2-2222-2-2-2222-2-2-2222-2-2-2222---|
A|-4-4-4444-4-4-4444-2-2-2222-2-2-2222-0-0-0000-0-0-0000-0-0-0000-0-0-0000---|
E|---------------------------------------------------------------------------|

Guitar 2
e|---------------------------------------------------------------------------|
B|---------------------------------------------------------------------------|
G|-6-6-6666-6-6-6666-8-8-8888-8-8-8888-9-9-9999-8-8-8888-9-9-99999-9-9-999---|
D|-x-x-xxxx-x-x-xxxx-x-x-xxxx-x-x-xxxx-x-x-xxxx-x-x-xxxx-x-x-xxxxx-x-x-xxx---|
A|-4-4-4444-4-4-4444-6-6-6666-6-6-6666-7-7-7777-6-6-6666-7-7-77777-7-7-777---|
E|---------------------------------------------------------------------------|

Chrous Guitar 1 & 2  play twice
e|-----------------------------------------------------------------------------|
B|-----------------------------------------------------------------------------|
G|9-9999999999999999---------------------6--------------------6----------------|
D|9-9999999999999999--9-9999999999999999-6-7-7777777777777777-4-7-777777777777-|
A|7-7777777777777777--9-9999999999999999-4-7-7777777777777777-4-7-777777777777-|
E|--------------------7-7777777777777777---5-5555555555555555---5-555555555555-|
    ****************    ****************     ****************     ************

Verse 3 guitar 1 (only played during first half of verse)
e|---------------------------------------------------------------------------------|
B|---------------------------------------------------------------------------------|
G|6-8--6-6666666-6-6666666-4-4444444-4-4444444-2-22222-4-222222-2-222222-4-222222--|
D|x-x--6-6666666-6-6666666-4-4444444-4-4444444-2-22222---222222---222222---000000--|
A|4-6--4-4444444-4-4444444-2-2222222-2-2222222-0-00000---000000---000000---000000--|
E|---------------------------------------------------------------------------------|
       * ******* * ******* * ******* * ******* * *****   ******   ******   ******

Guitar 1 (second half of verse)
e|---------------------------------------------------------------------------|
B|---------------------------------------------------------------------------|
G|666x6--444x4--222-222-222-222-222-222-222----------------------------------|
D|666x6--444x4--222-222-222-222-222-222-222----------------------------------|
A|444x4--222x2--000-000-000-000-000-000-000----------------------------------|
E|---------------------------------------------------------------------------|
                **  **  **  **  **  **  **
Guitar 2 (second half of verse)
e|---------------------------------------------------------------------------|
B|---------------------------------------------------------------------------|
G|---4------4-----22--22--22--22--22--22--22---------------------------------|
D-------2-----1---22--22--22--22--22--22--22---------------------------------|
A|----------------00--00--00--00--00--00--00---------------------------------|
E|---------------------------------------------------------------------------|
                  **  **  **  **  **  **  **

Bridge: Guitar 1
e|---------------------------------------------------------------------------|
B|---------------------------------------------------------------------------|
G|---------------------------------------------------------------------------|
D|-6-6-6666-6-6-6666-4-4-4444-4-4-4444-2-2-2222-2-2-2222-2-2-2222-2-2-2222---|
A|-4-4-4444-4-4-4444-2-2-2222-2-2-2222-0-0-0000-0-0-0000-0-0-0000-0-0-0000---|
E|---------------------------------------------------------------------------|

Chrous Guitar 1 & 2  PLay twice
e|-----------------------------------------------------------------------------|
B|-----------------------------------------------------------------------------|
G|9999999999999999--------------------6--------------------6-------------------|
D|9999999999999999-9-9999999999999999-6-7-7777777777777777-4-7-777777777777----|
A|7777777777777777-9-9999999999999999-4-7-7777777777777777-4-7-777777777777----|
E|-----------------7-7777777777777777---5-5555555555555555---5-555555555555----|

Solo Guitar 1 (play twice then play next guitar 1 part)
e|---------------------------------------------------------------------------|
B|---------------------------------------------------------------------------|
G|---------------------------------------------------------------------------|
D|---------------------------------------------------------------------------|
A|7-77777-7-77777-4-44444-4-44444-2-22222-2-22222-4-44444-0-00000------------|
E|---------------------------------------------------------------------------|
  * ***** * ***** * ***** * ***** * ***** * ***** * ***** * *****

Guitar 1 
e|---------------------------------------------------------------------------|
B|---------------------------------------------------------------------------|
G|9-99999-9-99999-6-66666-6-66666-4-44444-4-44444-6-66666-2-22222----9-------|
D|9-99999-9-99999-6-66666-6-66666-4-44444-4-44444-6-66666-2-22222----9-------|
A|7-77777-7-77777-4-44444-4-44444-2-22222-2-22222-4-44444-0-00000----7-------|
E|---------------------------------------------------------------------------|


Guitar 2 play 3 times, get progressively faster
e|---------------------------------------------------------------------------|
B|---------------------------------------------------------------------------|
G|---8-8h9-8----8-8h9-8---8-8h9-8----8-8h9-8---------------------------------|
D|----------9--------------------9-------------------------------------------|
A|-7----------7---------7-----------7-------9--------------------------------|
E|---------------------------------------------------------------------------|
   *          *         *           *

Chrous Guitar 1 & 2  PLay twice (only palm mute first time through)
e|-----------------------------------------------------------------------------|
B|-----------------------------------------------------------------------------|
G|9999999999999999--------------------6--------------------6-------------------|
D|9999999999999999-9-9999999999999999-6-7-7777777777777777-4-7-777777777777----|
A|7777777777777777-9-9999999999999999-4-7-7777777777777777-4-7-777777777777----|
E|-----------------7-7777777777777777---5-5555555555555555---5-555555555555----|

  ****************



| /  slide up
| \  slide down
| h  hammer-on
| p  pull-off
| ~  vibrato
| +  harmonic
| *  Mute note
===============================================================================
Tap to rate this tab
# A B C D E F G H I J K L M N O P Q R S T U V W X Y Z