Song name
# A B C D E F G H I J K L M N O P Q R S T U V W X Y Z

How To Destroy Angels - Keep It Together tab

Song: Keep It Together
Artist: How to Destroy Angels
Album: The Omen EP
Tuning: Drop Bb and/Standard

Note: Once again, I have two tunings for this song. The Drop Bb version is 
basically if you wanted to have the bass part written for guitar.


DROP Bb
Verse
|--------------------------------------------| 
|--------------------------------------------| sometimes it slides
|--------------------------------------------| back up.
|--------------------------------------------| 
|--------------------------------------------|
|-12-12-\\-0-//-12-------12-12-\\-0-0-0------|

Starting at 0:44, repeats after each line of vocals.
|------------------| 
|------------------|
|-9-9-9-9-9-9-9----|
|------------------| 
|------------------|
|------------------|

End Verse
2x
|------------10~-------| 
|----------------------|
|----------------------|
|----------------------| 
|-5-5-7-7-7~-----------|
|----------------------|

Repeat Verse

When Trent come in, at the end of each line (2:15 on)
|-(9)b10-10d9\----------------------------9b10---11(pb10)-10d9\------| 
|-------------------------later progress-----------------------------|
|----------------------------to--------------------------------------|
|--------------------------------------------------------------------| 
|--------------------------------------------------------------------|
|--------------------------------------------------------------------|

2:19
swell
|-(9)b10~-----bend back and forth the top string-| 
|------------------------------------------------|
|-----7-~----------------------------------------|
|------------------------------------------------| 
|------------------------------------------------|
|------------------------------------------------|

2:45
|-------------------------------------------------------------------------| 
|-----------------11-11-11-12-12-12---------------------11-11-11-12-12-12-|
|-11-11-13-13-13---------------------11-11-11\13-13-13--------------------|
|-------------------------------------------------------------------------| 
|-------------------------------------------------------------------------|
|-------------------------------------------------------------------------|



STANDARD
Verse
|--------------------------------------------| 
|--------------------------------------------| sometimes it slides
|--------------------------------------------| back up.
|--------------------------------------------| 
|-13-13-\\-1-//-13-------13-13-\\-1-1-1------|
|--------------------------------------------| 

Starting at 0:44, repeats after each line of vocals.
|------------------| 
|------------------|
|-5-5-5-5-5-5-5----|
|------------------| 
|------------------|
|------------------|

End Verse
2x
|------------6~-------| 
|---------------------|
|---------------------|
|---------------------| 
|-1-1-3-3-3~----------|
|---------------------|

Repeat Verse

When Trent come in, at the end of each line (2:15 on)
|-(5)b6-6d5\----------------------------5b6---8(pb6)-6d5\------| 
|-------------------------later progress-----------------------|
|----------------------------to--------------------------------|
|--------------------------------------------------------------| 
|--------------------------------------------------------------|
|--------------------------------------------------------------|

2:19
swell
|-(5)b6~-----bend back and forth the top string-| 
|-----------------------------------------------|
|-----3~----------------------------------------|
|-----------------------------------------------| 
|-----------------------------------------------|
|-----------------------------------------------|

2:45
|--------------------------------------------------------| 
|-------------7-7-7-8-8-8--------------------7-7-7-8-8-8-|
|-7-7-9-9-9--------------------7-7-7/9-9-9---------------|
|--------------------------------------------------------| 
|--------------------------------------------------------|
|--------------------------------------------------------|
Tap to rate this tab
# A B C D E F G H I J K L M N O P Q R S T U V W X Y Z