Song name
# A B C D E F G H I J K L M N O P Q R S T U V W X Y Z

How To Destroy Angels - Ice Age tab

-----------------------------------------------------------------
HOW TO DESTROY ANGELS - Ice Age
-----------------------------------------------------------------

Tabbed by: Neno

*This tab was made with reference to the Ice Age tab by the_messenger66, thanks for the help!*

Tuning: Drop D DADGBe

To mimic the tone in this song you can intertwine a piece of scrap paper between your 
strings at the bridge.
This mimics the sound of a kalimba/mbira/whatever the instrument is in this song.


INTRO/VERSE

   1     &  a   2     &  a   3     &  a   4     &  a
e|---------------------------------------------------|
B|---------------------------------------------------|
G|---------------------------------------------------|
D|----------4------------4------------7------------5-|
A|-------5------------5------------5------------5----|
D|-0------------0------------0------------0----------|

e|---------------------------------------------------|
B|---------------------------------------------------|
G|-----------------------5---------------------------|
D|----------5---------5----------------3-----------3-|
A|-------5-------------------------3---------0--3----|
D|-0------------0------------0------------0----------|

e|---------------------------------------------------|
B|---------------------------------------------------|
G|---------------------------------------------------|
D|----------4------------4------------7------------5-|
A|-------5------------5------------5------------5----|
D|-0------------0------------0------------0----------|

e|---------------------------------------------------|
B|---------------------------------------------------|
G|-----------------------5---5-----4------5-----5----|
D|----------5---------5------------------------------|
A|-------5------------------*3----*2-----*3----*3----|
D|-0------------0------------------------------------|

* Again, to mimic the sound of the instrument you can slightly bend the notes with a * 
out of tune.
But be sure to keep the higher voice in tune! Takes some practice but its not too hard.




CHORUS

* I like to add the higher octave here but its difficult to play and not really 
necessary so the notes are in brackets.

e|-----*(5)----(3)---(5)----------(5)----(3)---(5)---|
B|---------------------------------------------------|
G|-------2------0-----2------------2------0-----2----|
D|---------------------------------------------------|
A|---------------------------------------------------|
D|-5------------5------------5------------5----------|

e|-----*(5)----(3)---(5)----------(5)----(3)---(5)---|
B|---------------------------------------------------|
G|-------2------0-----2------------2------0-----2----|
D|---------------------------------------------------|
A|---------------------------------------------------|
D|-3------------3------------3------------3----------|

First Ending:

   1  e  &  a   2  e  &  a   3  e  &  a   4  e  &  a
e|---------------------------------------------------|
B|--------------------1------------------------------|
G|-------1-------------------------------------------|
D|------(0)-----0-------------------------3----------|
A|---------------------------------------------------|
D|-0----------------------------0--0-h3--------------|

e|---------------------------------------------------|
B|-------1-------------------0-----------------------|
G|--------------0-------------------------------0----|
D|--------------------3---------0--0-----------------|
A|------------------------------x--x-----------------|
D|----0-------------------------0--0------3----------|

Second Ending:

   1  e  &  a   2  e  &  a   3  e  &  a   4  e  &  a
e|---------------------------------------------------|
B|-------3------------3------------0-----------------|
G|-------x------------x-------------------2----------|
D|-------0------------0----------0-----------3--0----|
A|---------------------------------------------------|
D|-0------------0------------0-----------------------|

e|---------------------------------------1-----------|
B|-------3------------3----------------------3-------|
G|-------x------------x------------------------------|
D|-------0------------0------------3------------0----|
A|---------------------------------------------------|
D|----0--0------0------------0-----------------------|



And that's basically the structure of the song with a few variations here and there, enjoy!


FIN
Tap to rate this tab
# A B C D E F G H I J K L M N O P Q R S T U V W X Y Z