Song name
# A B C D E F G H I J K L M N O P Q R S T U V W X Y Z

How To Destroy Angels - The Wake-up tab

Song: The Wake-Up
Artist: How to Destroy Angels
Album: Welcome Oblivion
Tuning: Drop C


Intro and Verse
|-----------------------------------------------------------------| 
|-----------------------------------------------------------------|
|-----7---------------7-------------7-----------------7-----------|
|---0---------------0-------------------------------0-------------| 
|-----------------------------------------------------------------|
|-0---------------0---------------0---------------0---------------|

|-----------------------------------------------------------------| 
|-----------------------------------------------------------------|
|---7-----------------7-------------7-----------------7-----------|
|---------------------------------------------------0-------------| 
|-----------------------------------------------------------------|
|-0-----------------0-------------0---------------0---------------|

Refrain
Repeats as needed
|-----------------------------------------------------------| 
|-----------------------------------------------------------|
|-----------------------------------------------------------|
|----------0-0---0-0~-------------------0-0---0-0~----------| 
|----------------------3~---------------------------3~------|
|-0~-----------------------0---0~-----------------------0---|

Vocals at 1:09
|---------------------------------10p8~------------------------------| 
|-7/9~----b10~\--------------------7/9~----b10\----------------------|
|-------------------repeat-once--------------------------------------|
|-------------------------then---------------------------------------| 
|--------------------------------------------------------------------|
|--------------------------------------------------------------------|
Tap to rate this tab
# A B C D E F G H I J K L M N O P Q R S T U V W X Y Z