Song name
# A B C D E F G H I J K L M N O P Q R S T U V W X Y Z

Howard Blake - Walking In The Air tab

Help us improve GuitareTab! Take a short survey!
E--------1-1-------------1-1-------------1-1--------|
B------3-----3---------3-----3---------3-----3------|
G----2---------2-----2---------2-----2---------2----|
D--0-------------0-0-------------0-0-------------0--|
A---------------------------------------------------|
E---------------------------------------------------|

E-------------------------------------------------------------------------|
B----3-3-1-1------------3-3-1-1-------------------------------------------|
G--2---------2------2-2---------2---0----0-3-3-2-2-0----------------------|
D---------------------------------3-------------------0-3-3-2-2-0---------|
A-------------------------------------------------------------------------|
E-------------------------------------------------------------------------| X2


E--------------------------------------------------------------------------|
B-------------------0-1-3--0-------0-----1------3-2------------------------|
G-------------0-2--------------1-3---2-3---2----------2--------------------|
D----0-2----3--------------------------------------------------------------|
A--4-----------------------------------------------------------------------|
E--------------------------------------------------------------------------|
Related for Walking In The Air tab