Howard Blake - Walking In The Air tab

-------------------------------------------------------------------------------
			     WALKING IN THE AIR - Howard Blake
-------------------------------------------------------------------------------
Tabbed by: asd20227
Email: timothy8888 at gmail.com

Tuning: Standard

e|-------5-5-------------5-5-------||--------1-1--------------1-1------------|
B|-------6-6-------------6-6-------||------3-----3----------3-----3----------|
G|-----7-----7---------7-----7-----||*---2---------2------2---------2--------|
D|---7---------7-----7---------7---||*-0-------------0--0-------------0------|
A|-5-------------5-5-------------5-||----------------------------------------|
E|---------------------------------||----------------------------------------|
                             1. We're walking in the air            We're
                             2. I'm holding very tight              I'm
                             3.       Far across the world          The

e|-------1-1--------------0-0---------------0-0--------------3-3-------------|
B|-----3-----3----------1-----1-----------1-----1----------3-----3-----------|
G|---2---------2------0---------0-------0---------0------3---------3---------|
D|-0-------------0-----------------------------------------------------------|
A|------------------3-------------3---3-------------3------------------------|
E|-----------------------------------------------------3-------------3-------|
   floating in the moonlit sky                     The people far below are
   riding in the midnight blue                     I'm finding I can fly so
   villages go by like trees                       The rivers and the hills the

e|-------6-6--------------5-5--------------5-5--------------------||
B|-----6-----6------------6-6--------------6-6--------------------||
G|---7---------7--------7-----7----------7-----7-----------------*||
D|--------------------7---------7------7---------7---------------*||
A|------------------5-------------5--5-------------5--------------||
E|-6-------------6------------------------------------------------||
   sleeping as we fly
   high above with you
   forests and the streams

e|-----0---0---0--------1---1---1-----------------------------8--------------|
B|-----2---2---2--------3---3---3--------0---0---0----------8---8------------|
G|---0---0---0---0----2---2---2---2------0---0---0--------9-------9----------|
D|------------------0------------------0---0---0---0----10----------10-------|
A|-0-------------------------------------------------------------------------|
E|-----------------------------------3----------------8----------------------|
   Children gaze    open-mouthed     taken   by    surprise

e|-----3---3---3--------1---1---1--------6--------0-----------------5-7-9----|
B|-----4---4---4--------1---1---1--------6--------0-----------0-2-5----------|
G|---5---5---5---5----2---2---2---2----7---7----1---1-------2----------------|
D|--------------------------------------------------------2------------------|
A|-3----------------------------------------------------0--------------------|
E|------------------1----------------6--------0------------------------------|
   Nobody           down    below   believes    their   eyes 

e|----------1-1----------------1-1------------|
B|--------3-----3------------3-----3----------|
G|------2---------2--------2---------2--------|
D|----0-------------0----0-------------0------|
A|--------------------------------------------|
E|--------------------------------------------|
We're surfing in the air            We're

e|-------1-1--------------0-0---------------0-0--------------3-3-------------|
B|-----3-----3----------1-----1-----------1-----1----------3-----3-----------|
G|---2---------2------0---------0-------0---------0------3---------3---------|
D|-0-------------0-----------------------------------------------------------|
A|------------------3-------------3---3-------------3------------------------|
E|-----------------------------------------------------3-------------3-------|
   swimming in the frozen sky                    We're drifting over ic - y 

e|-------6-6--------------5-5--------------5-5--------------------|
B|-----6-----6------------6-6--------------6-6--------------------|
G|---7---------7--------7-----7----------7-----7------------------|
D|--------------------7---------7------7---------7----------------|
A|------------------5-------------5--5-------------5--------------|
E|-6-------------6------------------------------------------------|
   mountains floating by

e|--8-6-8-6-5-------5-3-5-3---------1-0-1-0----------------------------------|
B|----------------8---------6---------------3--------3-1-3-1-----------------|
G|-----------------------------------------------------------3----0----------|
D|---------------------------------------------------------------------------|
A|--8-----------8---5-----------5---1-----------1----------------------------|
E|---------------------------------------------------3----------3------------|

e|---1-1-1---1-1-1---1-1-1---1-1-1-----------|
B|---3-3-3---3-3-3---3-3-3---3-3-3-----------|
G|-----------------2-------------------------|
D|-0-------3---------------------------------|
A|-------------------------------------------|
E|-------------------------------------------|

e|-----0---0---0--------1---1---1-----------------------------8--------------|
B|-----2---2---2--------3---3---3--------0---0---0----------8---8------------|
G|---0---0---0---0----2---2---2---2------0---0---0--------9-------9----------|
D|------------------0------------------0---0---0---0----10----------10-------|
A|-0-------------------------------------------------------------------------|
E|-----------------------------------3----------------8----------------------|
   Suddenly        swooping low      on an o - cean   deep

e|-----3---3---3--------1---1---1--------6--------0-----------------5-7-9----|
B|-----4---4---4--------1---1---1--------6--------0-----------0-2-5----------|
G|---5---5---5---5----2---2---2---2----7---7----1---1-------2----------------|
D|--------------------------------------------------------2------------------|
A|-3----------------------------------------------------0--------------------|
E|------------------1----------------6--------0------------------------------|
 Arousing of a      mighty monster   from        its    sleep

e|----------1-1----------------1-1------------|
B|--------3-----3------------3-----3----------|
G|------2---------2--------2---------2--------|
D|----0-------------0----0-------------0------|
A|--------------------------------------------|
E|--------------------------------------------|
We're walking in the air              We're

e|-------1-1--------------0-0---------------0-0--------------3-3-------------|
B|-----3-----3----------1-----1-----------1-----1----------3-----3-----------|
G|---2---------2------0---------0-------0---------0------3---------3---------|
D|-0-------------0-----------------------------------------------------------|
A|------------------3-------------3---3-------------3------------------------|
E|-----------------------------------------------------3-------------3-------|
   floating in the moonlit sky                     And everyone who sees us

e|-------6-6--------------5-5--------------5-5--------------------|
B|-----6-----6------------6-6--------------6-6--------------------|
G|---7---------7--------7-----7----------7-----7------------------|
D|--------------------7---------7------7---------7----------------|
A|------------------5-------------5--5-------------5--------------|
E|-6-------------6------------------------------------------------|
   greets us as we fly

e|------------------3---3---3---3----3---3---3---3-----3--------------|
B|-8---8---8---8------4---4---4---4----3---3---3---3---0--------------|
G|---8---8---8-----------------------------------------0--------------|
D|-----------------------------------------------------0--------------|
A|-6-------------6--3----------------------------------2--------------|
E|-----------------------------------3-----------------3--------------|
Tap to rate this tab
 
# A B C D E F G H I J K L M N O P Q R S T U V W X Y Z