Song name
# A B C D E F G H I J K L M N O P Q R S T U V W X Y Z

Howard Jones - No One Is To Blame tab

-------------------------------------------------------------------------------
			     No One Is To Blame (Intro) - Howard Jones
-------------------------------------------------------------------------------
Tabbed by: Matt
Email: lpwjbklyn@gmail.com
Tuning: Standard

To hear what this tab sounds like, go to www.8notes.com, click on the Tab Converter link 
the bottom, and copy/paste the tab into the box.  If you select piano as the instrument 
see that it's very close to what is played for the song's intro.


    A      D       A   D                    D  E                  A  C#  B        A
e|---------10---9----------------------------------------------------------------------|
B|------10-----------------------10-----10-----------10---9---10-----------10----------|
G|----9-------9----9--11-----7-9----7-9-----7----7-9----7---7-----6---9--7--------9----|
D|--7-----------------------------7---------0---------------------7--11--9----7--11----|
A|--0-------0------0---------------------------7------------7---------------------0----|
E|--------------------10---10--------------10--0------------------5---9--7-------------|


        A  F#m E                     A  F#m E                E
e|------5---2--0---------------------5---2--0---------------12------------------------|
B|------5---2--0---------------------5---2--0----------------9------------------------|
G|-7----6---2--1----------2-2--------6---2--1----------2-2---9------------------------|
D|-7----7---4--2--2-2-4-4--------7---7---4--2--2-2-4-4-------9------------------------|
A|------7---4--2---------------------7---4--2-----------------------------------------|
E|---5--5---2--0--------0------5-----5---2--0--------0-------0------------------------|
Tap to rate this tab
# A B C D E F G H I J K L M N O P Q R S T U V W X Y Z