Song name
# A B C D E F G H I J K L M N O P Q R S T U V W X Y Z

Howard Shore - Beacon Hill tab

Beacon Hill Lead Guitar (classical from the movie The Departed enjoy!)

e|-1--1---------1--------1--1------------------------------------------------|
B|------------2--------------------------------------------------------------|
G|----------2------5-4-5-------2--4--5--5--7\5\4-----------------------------|
D|--------0------------------------------------------------------------------|
A|-0--0---------0--------0--0------------------------------------------------|
E|---------------------------------------------------------------------------|

e|-1--1----------------------------------------------------------------------|
B|---------------------------------------------------------------------------|
G|--------9--9-----9--10----9--9--9--2----2-2-4-5---4------------------------|
D|---------------------------------------------------------------------------|
A|-0--0----------------------------------------------------------------------|
E|---------------------------------------------------------------------------|

e|-------------------------------12-12---12-12-13---13-13-12-----------------|
B|---------------------10--12-13------------------------------10-------------|
G|-10-10--9-10-9-------------------------------------------------------------|
D|---------------------------------------------------------------------------|
A|---------------------------------------------------------------------------|
E|---------------------------------------------------------------------------|

e|-----------------------12----12-12-----------------------------------------|
B|10-12-10---13-12-13-15-------------10--10----10-10-12-13-12----------------|
G|---------------------------------------------------------------------------|
D|---------------------------------------------------------------------------|
A|---------------------------------------------------------------------------|
E|---------------------------------------------------------------------------|

e|--------------------12--------13--12--13-----------------------------------|
B|12-13-12-13-12--15------10----------------10--8--6--5----------------------|
G|---------------------------------------------------------------------------|
D|---------------------------------------------------------------------------|
A|---------------------------------------------------------------------------|
E|---------------------------------------------------------------------------|

e|------12-------------------------------------------------------------------|
B|-5-5------5--6--8--10---10--12--13---13--10--12-13--13---------------------|
G|---------------------------------------------------------------------------|
D|---------------------------------------------------------------------------|
A|---------------------------------------------------------------------------|
E|---------------------------------------------------------------------------|

e|---------------------------------------------------------------------------|
B|-10--13--10--12----1---1---------------------------------------------------|
G|---------------------------------------------------------------------------|
D|---------------------------------------------------------------------------|
A|-------------------0---0---------------------------------------------------|
Tap to rate this tab
# A B C D E F G H I J K L M N O P Q R S T U V W X Y Z