Song name
# A B C D E F G H I J K L M N O P Q R S T U V W X Y Z

Howard Shore - All Shall Fade Pippins Song tab

Song: All Shall Fade
Composer: Howard Shore
Soundtrack: The Lord of the Rings: The Return of the King
Sung By: Billy Boyd

Pippin’s Melody
e|---------------------------------------------------------------| 
B|---------------------------------------------------------------|
G|---------------------------------------------------------------|
D|---5--5-5~-----5--7-8--h10p8p7---5-5~-----5---5-5-7-8--7-5~----| 
A|-3------------------------------------------3------------------|
E|---------------------------------------------------------------|

e|--------------------------------------------------------------| 
B|--------------------------------------------------------------|
G|-----------------5--7-8--7/5--5~------------------------------|
D|-10--10-/5----------------------------5---5-5-7-8--7/5-5~-----| 
A|----------------------------------------3---------------------|
E|--------------------------------------------------------------|

e|------------------------------------------------------------| 
B|------------------------------------------------------------|
G|---------------------5-/7-8--7--5~--------------------------|
D|-10--10-10-/5~-----------------------------5--5~------------| 
A|----------------------------------------3-------------------|
E|------------------------------------------------------------|

e|----------------------------------------------------------| 
B|----------------------------------------------------------|
G|----------------------------------------------------------|
D|-5-7-8-10--7p8p7/3~-------------------5~------------------| 
A|----------------------------------------------------------|
E|----------------------------------------------------------|

Home is behind
The world ahead
And there are many paths to tread
Through shadow
To the edge of night
Until the stars are all alight

Mist and shadow
Cloud and shade
All shall fade
All shall - fade.

Clarinet Outro
e|----------------------------------------------------------| 
B|----------------------------------------------------------|
G|-----12--12-12~-------12-14-15-----14---15-14-12~---------|
D|-10-------------------------------------------------------| 
A|----------------------------------------------------------|
E|----------------------------------------------------------|
Tap to rate this tab
# A B C D E F G H I J K L M N O P Q R S T U V W X Y Z