Song name
# A B C D E F G H I J K L M N O P Q R S T U V W X Y Z

Howard Shore - The King Of The Golden Hall tab

So this is my first tab of an soundtrack i hope you like it.
Enjoy playing it greetings captain kackboon

e---------------------------------------|
h--------------------------------5-7-10-|
g--------5-4-5-7-4-----------5-4--------|
d--7-7-7--------------7-7-7-------------|
a---------------------------------------|
E---------------------------------------|

e--------------------------|
h--------------------------|
g------------4-5-5-5-7-----|
d------7-7-7-----------7---|
a--7-7---------------------|
E--------------------------|

e------------------|
h------------------|
g------------------|
d-3----------------|
a---4-3-4-4-1------|
E------------------|

e-------------------|
h------------5-7-10-|
g--------5-4--------|
d--7-7-7------------|
a-------------------|
E-------------------|

e------------------|
h--10-6-5-6-6------|
g------------------|
d------------------|
a------------------|
E------------------|

so thats it!
Tap to rate this tab
# A B C D E F G H I J K L M N O P Q R S T U V W X Y Z