Song name
# A B C D E F G H I J K L M N O P Q R S T U V W X Y Z

Howard Shore - The Riders Of Rohan tab

e|-------------------|
B|--------------3----|
G|-2-2-2-5-4-5-----4-|
D|-------------------|
A|-------------------|
E|-------------------|

e|--------------2-5-|
B|-----------5------|
G|-2-2-2-5-4--------|
D|------------------|
A|------------------|
E|------------------|

e|----------------2--2-5----5-|
B|--------------5---------5---|
G|-2-2-4-4-4-5----------------|
D|----------------------------|
A|----------------------------|
E|----------------------------|

e|--------3---|
B|-6-5-6----5-|
G|------------|
D|------------|
A|------------|
E|------------|
Tap to rate this tab
 
# A B C D E F G H I J K L M N O P Q R S T U V W X Y Z