Song name
# A B C D E F G H I J K L M N O P Q R S T U V W X Y Z

Howard Shore - Concerning Hobbits tab

-----------------------------------------------------------------
Concerning Hobbits - Howard Shore
-----------------------------------------------------------------
Tabbed by: Kyler Bleakman
Email: kaleyandkyler@gmail.com

Tuning: Standard

Notes: I looked at some of the other versions and combined them. 
       I had this output. But I am figuring out the next part.
       (And I also recommend a capo 2nd fret, to give more choppy notes)

e|-------0-3-0-------------------0-3-5-8-7-3-0-------------------|
B|--1-3----------3-1----------------------------3----------------|
G|---------------------------------------------------------------|
D|---------------------------------------------------------------|
A|---------------------------------------------------------------|
E|---------------------------------------------------------------|

e|-------0-3-0-------------------0-3-5--3-0----------------------|
B|--1-3---------3-1h3p1----------------------3-------------------|
G|---------------------------------------------------------------|
D|---------------------------------------------------------------|
A|---------------------------------------------------------------|
E|---------------------------------------------------------------|

e|------0--3-0---0--0-3-5--8-7-5-0-0-----------------------------|
B|--1-3-1------3-1------6--------1-3-----------------------------|
G|------0--------2------5--------0-0-----------------------------|
D|------2--------3------3--------2-0-----------------------------|
A|------3--------3------0--------3-2-----------------------------|
E|------0--------0------0--------0-3-----------------------------|

e|------0--3-0---0------0-3-5--3-0-------------------------------|
B|--1-3-1------3-1h3p1------6------3---1---I am currently--------|
G|------0--------2----------5---------------figuring out---------|
D|------2--------0----------3-----------------the next part------|
A|------3--------3----------0------------------------------------|
E|------0-------------------0------------------------------------|


| /  slide up
| \  slide down
| h  hammer-on
| p  pull-off
| ~  vibrato
| +  harmonic
| x  Mute note
Tap to rate this tab
 
# A B C D E F G H I J K L M N O P Q R S T U V W X Y Z