Song name
# A B C D E F G H I J K L M N O P Q R S T U V W X Y Z

Howard Shore - Concerning Hobbits tab

 --------------------------------------------------------
              Concerning Hobbits - Howard Shore
 --------------------------------------------------------

 Tuning: Variation of Open D (d,A,F#,D,G,D)

 My brother created this arrangement of Concerning Hobbits
 while travelling and i preferred it to any other arrangements
 ive heard, so i wrote it up. If you know the song then the
 rythmyn should be easy to work out. The tuning is like Open D,
 only with the lower A dropped to a G.

 | h	hammer on
 | p	pull of
 | /	slide up
 | \	slide down
 |<>	harmonic


 D|-------------------------------------------------------|
 A|----------------------------------5--4--0--------------|
F#|-----------3--------------3--3/5-----------0--1p0------|
 D|-0--2--2/4---4--2--0----4-------------------------2----|
 G|-----------------------------0-------0------------2----|
 D|-------0-----0--4--5--0--------------------0-----------|

 D-------------------------------------------------------|
 A-------------------------------------------------------|
F#-----------3--------------3--3/5--3--0-----------------|
 D-0--2--2/4---4--2--0----4---------------2----0h2h4p2-0-|
 G-----------------------------0----------2--2-----------|
 D-------0-----0--4--5--0------------------------------0-|

 D---------------------------------x-|
 A---------------------------------x-|
F#---------------------------------x-|
 D---------------------------------x-|
 G---------------------------------x-|
 D--<7>--<5>--<7>--<12>--<7>--<5>--x-|

 D--0h2h4-----4--------4---7--2--0--2--------|
 A-------------------------------------------|
F#---------0--------0------------------------|
 D---------------0------------------------2--|
 G-------------------------------------2-----|
 D--0----------------------0-----------------|

 D-----------0-------------------------------|
 A--0h2h4------------0------0----------------|
F#---------------------0---------------------|
 D--------0-------0-------0-----2------------|
 G--0----------0--------------2--------------|
 D---------------------0---------------------|

 D--0h2h4-----4--------4---7--2--0--2--------|
 A-------------------------------------------|
F#---------0--------0------------------------|
 D---------------0------------------------2--|
 G-------------------------------------2-----|
 D--0----------------------0-----------------|

 D---------0-------0-4----7--2---------------|
 A--0h2h4------------------------------------|
F#-------------------------------------------|
 D-------0-------0------0-------2------------|
 G--0---------0--------------2---------------|
 D-------------------0-----------------------|

 D--0-4--------0--9-11-12----11-7--4----7-2----|
 A---------------------------------------------|
F#----------------0----------------------------|
 D------------------------------------0------2-|
 G---------------------0--0--0--0---------2----|
 D----0--0--0----------------------0-----------|

 D--0h2h4--------0--9-11-12---14p12-11-7--2-------0h2h4p2-0|
 A--------------------------------------------------------0|
F#------------------0--------------------------------------|
 D---------------------------------------------------------|
 G-----------------------0--0-------0--0--2--2--2----------|
 D------0--0--0-------------------------------------------0|
Tap to rate this tab
 
# A B C D E F G H I J K L M N O P Q R S T U V W X Y Z