Song name
# A B C D E F G H I J K L M N O P Q R S T U V W X Y Z

Howard Shore - The Shire-intro tab

e|-------------------------------------------------3----6-5----------------|
B|-------------3---6-----3---------------3--6----------------6--3---4-3----|
G|-----3--5--------------------5---3-------------------------------- ------|
D|-------------------------------------------------------------------------|
A|-------------------------------------------------------------------------|
E|-------------------------------------------------------------------------|



e|-------------------------------------------------------------------------|
B|--1----------------------------------------------------------------------|
G|--------3-2-3------------------------------------------------------------|
D|-------------------------------------------------------------------------|
A|-------------------------------------------------------------------------|
E|-------------------------------------------------------------------------|


The end sounds a bit odd, but that's because in the movie, it normally fades out here, 
or begins another piece of music. This is my first tab, so I didn't know how to properly 
represent tempo, but if you've heard the music, you'll know how to play it!

Enjoy!
(Any questions or suggestions please email at ycerq97@gmail.com)
Tap to rate this tab
# A B C D E F G H I J K L M N O P Q R S T U V W X Y Z