Song name
# A B C D E F G H I J K L M N O P Q R S T U V W X Y Z

Howard Shore - Lord Of The Rings Concerning Hobbits tab

-------------------------------------------------------------------------------
                            LOTR-Concerning Hobbits  - Howard Shore
-------------------------------------------------------------------------------
Tabbed by: Alex Blair
E-mail:duct_tape_dude@comcast.net
this is beginer level tabs for sure lol i made it on the fly and i think it sounds pretty 
acurate so.....here it is enjoy :P if you have any 
suggestions on how to fix it or continue past this part feel free to e-mail me.
Tuning:standard capo on the 3rd fret

e|---------------------------------------------------------------------------|
B|---------------------------------------------------------------------------|
G|---------------------------------------------------------------------------|
D|--------------2-----------------------2---4/7---6---2----------------------|
A|--0---2---4-------4---2---0---0---4---------------------4---4h5---2--------|
E|---------------------------------------------------------------------------|

e|---------------------------------------------------------------------------|
B|---------------------------------------------------------------------------|
G|---------------------------------------------------------------------------|
D|--------------2-----------------------2---4/7---6---2----------------------|
A|--0---2---4-------4---2---0---0---4---------------------4---4h5---2--------|
E|---------------------------------------------------------------------------|

************************************

| /   slide up
| \   slide down
| h   hammer-on
| p   pull-off
| ~   vibrato
| +   harmonic
| x   Mute note
| b   Bend
| pb  Pre-bend
| br  Bend release
| pbr Pre-bend release
| brb Bend release bend

************************************
Tap to rate this tab
# A B C D E F G H I J K L M N O P Q R S T U V W X Y Z