Song name
# A B C D E F G H I J K L M N O P Q R S T U V W X Y Z

Howard Shore - The Ring Goes South tab

e|---0---0-0-------------0------5--7--8--7--5--3--5--7--5--3--2--------------|
B|-------------3--0--3-------------------------------------------------------|
G|---------------------------------------------------------------------------|
D|---------------------------------------------------------------------------|
A|---------------------------------------------------------------------------|
E|---------------------------------------------------------------------------|

e|---0---0-0--------------0------5--7--8----7--8--10---8--10--12-------------|
B|-------------3--0--3-------------------------------------------------------|
G|---------------------------------------------------------------------------|
D|---------------------------------------------------------------------------|
A|---------------------------------------------------------------------------|
E|---------------------------------------------------------------------------|
Tap to rate this tab
# A B C D E F G H I J K L M N O P Q R S T U V W X Y Z