Song name
# A B C D E F G H I J K L M N O P Q R S T U V W X Y Z

Howard Shore - Misty Mountains Cold tab

            Misty Mountains

E|-------------------------------------------|
B|-------------------------------------------|
G|-------------------------------------------|
D|-------------------------------------------|
A|-----------1---3-5-3-1---0-----------------|
D|-0---3-5-----------------------5-----------|
   Far o ver the misty mountains cold

E|-------------------------------------------|
B|-------------------------------------------|
G|-------------------------------------------|
D|-------------------------------------------|
A|-------------0----1---3-1-0----------------|
D|-0--3--5----------------------5------------|
   To dungeons deep and caverns old

E|-------------------------------------------|
B|-------------------------------------------|
G|-------------------------------------------|
D|-------------------------------------------|
A|-1--3----0-5---1---3--------0--------------|
D|-------------------------5-----------------|
   We must a way ere break of day

E|-------------------------------------------|
B|-------------------------------------------|
G|-------------------------------------------|
D|-------------------------------------------|
A|---------0---1----3--1-0-------------------|
D|-0--3---------------------3-5--------------|
   To find our long forgotten gold

E|-------------------------------------------|
B|-------------------------------------------|
G|-------------------------------------------|
D|-------------------------------------------|
A|------------------------1-3-1-0------------|
D|-0---0-----3----5--5-------------3---5-----|
   The pines were roaring on       the height

E|-------------------------------------------|
B|-------------------------------------------|
G|-------------------------------------------|
D|-------------------------------------------|
A|----------------0--0----1-3-1-0-------0----|
D|-0---3-----5----------------------5--------|
   The winds were moaning in        the night

E|-------------------------------------------|
B|-------------------------------------------|
G|-------------------------------------------|
D|-------------------------------------------|
A|-1---3----0---5---1--3-------0-------------|
D|------------------------5------------------|
   The fire was red it flaming spread

E|-------------------------------------------|
B|-------------------------------------------|
G|-------------------------------------------|
D|-------------------------------------------|
A|-----------0----1--1----0------------------|
D|-0---3-------------------------3----5------|
   The trees like torches blazed with light




This tab is of the lead vocals sung by Thorin Oakenshield in the movie
version of Misty Mountains. This is my first tab so I started with
something simple and I hope I did well and that everyone enjoys. There'll
probably be more to come eventually! Be sure to give feedback so I know how I did ^_^

Song: Misty Mountains
Composer: Howard Shore
Original tab by: Bill G.
Tap to rate this tab
 
# A B C D E F G H I J K L M N O P Q R S T U V W X Y Z