Song name
# A B C D E F G H I J K L M N O P Q R S T U V W X Y Z

Howard Shore - Misty Mountains Cold tab

e:--------------------------------------------------------------------------|
B:-------------------------1-3-1--------------------------------------------|
G:---------0-----------3---0-----3---2---0-------0--------------------------|
D:-0---3---0---------------------0-------0---0-------0----------------------|
A:--------------------------------------------------------------------------|
E:---------3---------------3-------------3---------------3------------------|

e:--------------------------------------------------------------------------|
B:-------------------------------------1------------------------------------|
G:---------0---2-------------------2---2-3-2-0-------0----------------------|
D:-0---3-------3-------3-----------3---------0---0-------0------------------|
A:-----------------3-------3------------------------------------------------|
E:-------------1---------------1-------------3---------------3--------------|
               
e:--------------------------------------------------------------------------|
B:---------------------------1----------------------------------------------|
G:-------------0-0-----0---3---3-2-------0-------0--------------------------|
D:-0---0---3---0---0-------0-----0---3---0---0-------0----------------------|
A:--------------------------------------------------------------------------|
E:-------------3-----------3-------------3---------------3------------------|
      
e:--------------------------------------------------------------------------|
B:-------------------------------------1-----1------------------------------|
G:---------0---2-------------------2---2-3-2-2-------2----------------------|
D:-0---3-------3-------3-----------3---------3---3-------3------------------|
A:-----------------3-------3------------------------------------------------|
E:-------------1---------------1-------------1------------------------------|

e:--------------------------------------------------------------------------|
B:---------1-------3------------------------1-------------------------------|
G:-----3-------2---3-------3------------3--------0-2------------------------|
D:-----3---------------0-------0--------0----------3-------3--------------3-|
A:-1-----------------------------------------------3---3-------3-------3----|
E:-----------------3----------------3--------------1---------------1--------|

e:--------------------------------------------------------------------------|
B:--------------------------------------------------------------------------|
G:2---3-3-------3---2------0------------------------------------------------|
D:----3-----3-------2----3---0----------------------------------------------|
A:----1-------------0-------------------------------------------------------|
E:---------------------3----------------------------------------------------|

e:-------------3-------3-----------------------3-------3------3-------------|
B:-----------3---3---3-----1---3-1-----------3---3-1-----3--3------3--------|
G:---------0-------0---3-----2-----3---2---3---------0----------------------|
D:-0---3-----------------------------3---3-----------------------0----------|
A:--------------------------------------------------------------------------|
E:---------3---------------1---------------3----------------3---------------|

e:-------------1-------------------------------------0-----1-1--------------|
B:---3---3---1---1---1---1-1---3-1-----------3---3-------3---3---3----------|
G:-----0---2-------2---3-----2-----3---2-------2---2---2-----2-2---2--------|
D:-3---------------------------------3---3---0------------------------------|
A:-----------------------------------------------------------3--------------|
E:---------1----------------------------------------------------------------|

e:-0-------1-------3-----5-5---------------10-------------------------------|
B:-----3-------------------2---------------10-------------------------------|
G:---2---2-----2-------2---2---------------10-------------------------------|
D:-----------3---3---3------------------------------------------------------|
A:-------------------------0------------------------------------------------|
E:---------1-------------------------------10-------------------------------|
Tap to rate this tab
 
# A B C D E F G H I J K L M N O P Q R S T U V W X Y Z