Song name
# A B C D E F G H I J K L M N O P Q R S T U V W X Y Z

Howard Shore - Far Over The Misty Mountains Cold tab

Far over the misty mountains cold
E------5--8-10-12-10-8-7-5-------|
B--5-8---------------------------|
G--------------------------------|
D--------------------------------|
A--------------------------------|
E--------------------------------|

To dungeons deep and caverns old
E----5-7-7--8-10-8-7-5-----------|
B--5-----------------------------|
G--------------------------------|
D--------------------------------|
A--------------------------------|
E--------------------------------|

We must away ere break of day
E--8-10-7-12---7-10-5-7----------|
B--------------------------------|
G--------------------------------|
D--------------------------------|
A--------------------------------|
E--------------------------------|

To find our long forgotten gold
E----5-7-8----7h8p7----5---------|
B--5----------------8------------|
G--------------------------------|
D--------------------------------|
A--------------------------------|
E--------------------------------|

The pines were roaring on the height
E--------5-5--8-10-8-7---5-------|
B--5-5-8---------------8---------|
G--------------------------------|
D--------------------------------|
A--------------------------------|
E--------------------------------|

The winds were moaning in the night
E------5-7-7----8-10-8-7-5-7-----|
B--5-8---------------------------|
G--------------------------------|
D--------------------------------|
A--------------------------------|
E--------------------------------|

The fire was red, it flaming spread
E--7-10-7-12--7-10-5-7-----------|
B--------------------------------|
G--------------------------------|
D--------------------------------|
A--------------------------------|
E--------------------------------|

The trees like torches blazed with light
E----5-7-8-8---7---5-------------|
B--5-------------8---------------|
G--------------------------------|
D--------------------------------|
A--------------------------------|
E--------------------------------|
Tap to rate this tab
# A B C D E F G H I J K L M N O P Q R S T U V W X Y Z