Song name
# A B C D E F G H I J K L M N O P Q R S T U V W X Y Z

Howard Shore - Rohan tab

E|--------------------------------|--------------------------------|
B|-----------1-0-1-3--------------|--------------------------------|
G|----2-2-2------------2----------|--------------------------------|
D|--------------------------------|--------------------------------|
A|-0------------------------------|--------------------------------|
E|--------------------------------|--------------------------------|


E|-----------------0-----2---/5-----|--------------------------------|
B|-----------1-0--------------------|--------------------------------|
G|----2-2-2-------------------------|--------------------------------|
D|---------------------- 0----------|--------------------------------|
A|-0--------------------------------|--------------------------------|
E|----------------------------------|--------------------------------|

E|--------------------------------|----------------------------------|
B|-----------1-0-1-3--------------|----------------------------------|
G|----2-2-2------------2^---------|----------------------------------|
D|-----------------0--------------|----------------------------------|
A|-0------------------------------|----------------------------------|
E|--------------------------------|----------------------------------|

E|--7------------------------------|----------------------------------|
B|------8---7---8--8---------------|----------------------------------|
G|----------------------9^---------|----------------------------------|
D|---------------------------------|----------------------------------|
A|---------------------------------|----------------------------------|
E|--0--------------8---------------|----------------------------------|

E|----------------------------------|-------------------------------------|
B|-----------0--1--3----------------|-------------------------------------|
G|----2-2-2--------2----2-----2-0-2-|-------------------------------------|
D|-----------2-------------4--------|-------------------------------------|
A|-0--0------0-----5----------------|-------------------------------------|
E|----------------------------------|-------------------------------------|

E|---------------------0----2---5-------|-------------------------------------|
B|-----------1-0------------------------|-------------------------------------|
G|----- 2-2-2--------------2--------2---|-------------------------------------|
D|----2--------2-----------0----0-------|-------------------------------------|
A|-0--0-----0--0-------0----------------|-------------------------------------|
E|--------------------------------------|-------------------------------------|

E|---------------7---7-------3----|------------------------------------|
B|---3------3--------0------------|------------------------------------|
G|-----2-------------0---0------0-|------------------------------------|
D|--------------------------------|------------------------------------|
A|--------------------------------|------------------------------------|
E|-------------------0------------|------------------------------------|

E|---------------------7---8--10---|-----5-----------------12-------|
B|-----------------0---------------|--------------------------------|
G|------------0--------------------|-----------------------7--------|
D|---------------------------------|-----7------7-------7-----------|
A|----------------------------5----|-----------------5--------------|
E|---0-----------------------------|--------------------------------|

E|-12------------------8----12----|---12------------------------------|
B|--------------------------------|----0------------------------------|
G|--------------------------------|----0----0-----0---0---------------|
D|----------10--------------------|------------4---------2------------|
A|------10------10----------------|-------------------3---------------|
E|-8-------------------8----------|----0------------------------------|

E|---------3^----5--3--------------|-0---7--------3^----5-3----------|
B|-----------------------7---------|---------------------------------|
G|--------------------------7------|---------------------------------|
D|---5-----------------------------|----------5----------------------|
A|---5-------------------5---------|----------5----------------------|
E|---3-----------------------------|-0--------3----------------------|

E|--------------7---3--2---3-------|---3---0----------------------------------------|
B|---7-----------------------------|-------------------------1-0-1-3-0--------------|
G|-------7-------------------------|---------------2-2-2--------------------2-------|
D|---------------------------------|-------------------------------0--------2-------|
A|---5-----------------------------|---3------0-----------------------------0-------|
E|--------------0------------------|------------------------------------------------|
Tap to rate this tab
# A B C D E F G H I J K L M N O P Q R S T U V W X Y Z