Song name
# A B C D E F G H I J K L M N O P Q R S T U V W X Y Z

Howard Shore - Concerning Hobbits tab

-------------------------------------------------------------------------------
Concerning Hobbits- Howard Shore
Acoustic Guitar
-------------------------------------------------------------------------------

Tabbed by: chinchilla   


Tuning: EADGBE


Background Rhythm
e|------------------------------------------------------------------------------|
B|------------------------------------------------------------------------------|
G|------------------------------------------------------------------------------|
D|------------------------------------------------------------------------------|
A|-------5---------5------------------------------------------------------------|
E|--0--5---5--0--5--------------------------------------------------------------|


PART A
e|------2-5--2--0h2p0------2-5-7-10-9-5-2--3h2----------------------------------|
B|--3h5---------------3--------0---------------5--------------------------------|
G|-----------------------------0------------------------------------------------|
D|--0-----------------------------------0---------------------------------------|
A|--------------------0------------------------0--------------------------------|
E|------------------------------------------------------------------------------|


e|------2-5--2h0--------2-5-5/7-5-2-2-3h2---------------------------------------|
B|--3h5----------3h5p3------0-------0-----5---3h5p3-----------------------------|
G|--------------------------0---------------------------------------------------|
D|--0-------------------------------0--------0----------------------------------|
A|---------------0------------------------0-------------------------------------|
E|------------------------------------------------------------------------------|


PART B
e|------2--2-2--2-5-0-----------------------------------------------------------|
B|--3h5----------------3-3h5---0h2-3-3--5--3-2---3-0----------------------------|
G|------------------------------------------------------------------------------|
D|--0---------------------------------------------------------------------------|
A|----------------0--------------------------0----------------------------------|
E|-----------------------------3-------------------3----------------------------|


PART C
e|-----------2-2--5-2-0-------------------------7-9-10-9-5-2-2h3p2h0---0-----2--|
B|--3-5--3h5------------3-3h5-2---2h3p2h0-5h7--7-----0-----3-------2---2-3-5-0--|
G|---------------------------------------------------0-----2-------2---2-----0--|
D|-------0-------------------------------------------0-------------2------------|
A|------------------------0-----------------------------------------------------|
E-------------------3-----------------------------------------------------------|


e|--2-3-5-0---------2--2-2--0h2-4--4-4--2h4-6--6-6-666~------------------3-2-0--|
B|--------------3h5-------------------------------------------------0-3---------|
G|------------------------------------------------------------------------------|
D|--------------0-------------------------------------------------------0-------|
A|------0--------------------------------------------------------------------0--|
E|------------------------------------------------------------------3-----------|


PART D
e|------2-2------0-0-------2-2-----3--0-----------------------------------------|
B|------3-3------2-2-------3-3-----0--2-----------------------------------------|
G|----2--------2---------4--------0---------------------------------------------|
D|--0---------------------------------------------------------------------------|
A|-----------0---------2--------------0-----------------------------------------|
E|------------------------------3-----------------------------------------------|


Panpipe together with PART D
e|---2--2------------------0---------------5----5-5-7---7-9-10-9-5-2--3-2-0-----|
B|--3--3--0----0-2-3---3-------5-7-8--8-7-8------8-----7-----0-----3------2-----|
G|-------------------2---2-----------------------------------0-----2------2-----|
D|-----------------------------------------------------------0------------2-----|
A|------------------------------------------------------------------------------|
E|------------------------------------------------------------------------------|

e|--0h2p0-----------------------------------------------------------------------|
B|--------3-3-------------------------------------------------------------------|
G|------------------------------------------------------------------------------|
D|--------0-0-------------------------------------------------------------------|
A|------------------------------------------------------------------------------|
E|------------------------------------------------------------------------------|

repeat PART B


then play  e|----2-5--------| and repeat Part D once
           B|--3------------|
           G|---------------|
           D|---------------|
           A|---------------|
           E|---------------|  


and finally PART A again



************************************

| /   slide up
| \   slide down
| h   hammer-on
| p   pull-off
| ~   vibrato
| +   harmonic
| x   Mute note
| b   Bend
| pb  Pre-bend
| br  Bend release
| pbr Pre-bend release
| brb Bend release bend

************************************

Tap to rate this tab
 
# A B C D E F G H I J K L M N O P Q R S T U V W X Y Z