Song name
# A B C D E F G H I J K L M N O P Q R S T U V W X Y Z

Howard Shore - Concerning Hobbits tab

Concerning Hobbit theme from the Hobbit

I Hope you will enjoy my version =)

e|------------------------------------|-------------------------------|
B|----------------------3-2-----------|-------------------------------|
G|-------2----------2-4-----2---------|-------2----------2-4-2--------|
D|-0-2-4---4-2-0--4-----------4-5-4-2-|-0-2-4---4-2-0--4-------4-2-0--|
A|------------------------------------|-------------------------------|
E|------------------------------------|-------------------------------|

e|-----2-2-2-2-5----------------------------2-2-5-2-----------------2-|
B|-3-5----------5-3-5-----2-2-2-3-------3-5---------5-3-5-2-3-2---2-3-|
G|--------------------2-4-----------0-2-------------------------4---2-|
D|--------------------------------4---------------------------------0-|
A|--------------------------------------------------------------------|
E|--------------------------------------------------------------------|
Tap to rate this tab
# A B C D E F G H I J K L M N O P Q R S T U V W X Y Z