Song name
# A B C D E F G H I J K L M N O P Q R S T U V W X Y Z

Howard Shore - Far Over The Misty Mountains Cold tab

e ------------------------------|
B ------------------------------|
G ------------------------------|
D ---------------0-2-0----------|     Repeat as many times as you like, but I
A -------0-0---3-------3-2-0----|     think this is only the intro...
E -0-0-3------------------------|

On the second time you could add this:

e ------------------------------|
B ------------------------------|
G ------------------------------|
D ---------------0-2-0----------|
A -------0-0---3-------3-2-0----|
E -0-0-8------------------------|
Tap to rate this tab
# A B C D E F G H I J K L M N O P Q R S T U V W X Y Z