Song name
# A B C D E F G H I J K L M N O P Q R S T U V W X Y Z

Howard Shore - The King Of The Golden Hall tab

|-------------------------------------------------------------|
|--------------------------------1-4--------------------------|
|-------------1----------------3--------------------------1---|
|-1-1-1-4-3-4---1----1-1-1-4-3--------------1-1-1-3-4-4-4---1-|
|---------------------------------------1-1-------------------|
|-------------------------------------------------------------|

|----------------------------------------------------------------------|
|----------------------------1-4----6-2-1-2-2--------------------------|
|--------------------------3---------------------------1-3-0-2-2----3-0|
|-3--------------1-1-1-4-3-------------------------2-3-----------------|
|---4-3-4-4-1------------------------------------4---------------------|
|----------------------------------------------------------------------|
                                   |                                   |
                                    \--------                 --------/
                                         Listen to song for timing
Tap to rate this tab
# A B C D E F G H I J K L M N O P Q R S T U V W X Y Z