Song name
# A B C D E F G H I J K L M N O P Q R S T U V W X Y Z

Howard Shore - Concernig Hobbits tab

e|-----------------------------------------------------------------------|
B|-----------------------------------------------------------------------|
G|---------------------------9-12-11-------------------------------------|
D|-------9-12-9---------9-12---------12-9-10p9---------------------------|
A|-10-12--------12-10--------------------------12------------------------|
E|-----------------------------------------------------------------------|

e|-----------------------------------------------------------------------|
B|-----------------------------------------------------------------------|
G|---------------------------9-12-11-------------------------------------|
D|-------9-12-9---------9-12---------12-9-10p9---------------------------|
A|-10-12--------12-10--------------------------12---10\9/10--------------|
E|-----------------------------------------------------------------------|

i know that the ending is incorrect but it fits
Tap to rate this tab
# A B C D E F G H I J K L M N O P Q R S T U V W X Y Z