Song name
# A B C D E F G H I J K L M N O P Q R S T U V W X Y Z

Howie Beck - Maybe I Belong tab

Howie Beck - Maybe I belong
From: Hollow (2001)
www.howiebeck.com

This is the riff and the solo that plays through in the song:

Riff:

||--5-----|--------------------|---------------------------------||
||-----7--|--7--8--7--8--7--5--|--3--3---------------------------||
||--------|--------------------|--------4------------------------||
||--------|--------------------|---------------------------------||
||--------|--------------------|---------------------------------||
||--------|--------------------|---------------------------------||


Guitar solo:

||--5-----|--------------------|--5--5--5--7--|--7--10-----------|
||-----7--|--7--8--7--8--7--5--|--------------|------------------|
||--------|--------------------|--------------|------------------|
||--------|--------------------|--------------|------------------|
||--------|--------------------|--------------|------------------|
||--------|--------------------|--------------|------------------|

|--12--9--|--9--9--9--9--10--10--10--9--12----------------------||
|---------|-----------------------------------------------------||
|---------|-----------------------------------------------------||
|---------|-----------------------------------------------------||
|---------|-----------------------------------------------------||
|---------|-----------------------------------------------------||



Tap to rate this tab
# A B C D E F G H I J K L M N O P Q R S T U V W X Y Z