Song name
# A B C D E F G H I J K L M N O P Q R S T U V W X Y Z

Howie Day - Disco tab

-----------------------------------------------------------------------------
			     Disco - Howie Day
-----------------------------------------------------------------------------
Tabbed by: Joseph Weber

Tuning: Standard tuning, Capo 2
	Everything relative to Capo.

This tab is fairly accurate.  Howie adds little notes here and there, but you
should be able to play over the recording with this.  Figure out the strum
pattern yourself.  It's pretty easy.

Chords: A  Asus7  Asus  Cmaj7  Dsus2  D   Bb   C   C2*
     e|-0----0------0-----0------0----2----1---0----0-|
     B|-2----3------3-----0------3----3----3---1----1-|
     G|-2----0------2-----0------2----2----3---0----0-|
     D|-2----2------2-----2------0----0----3---2----0-|
     A|-0----0------0-----3------0----0----1---3----3-|
     E|-----------------------------------------------|
*I think this is what it's called, but I'm not entirely positive.



Intro:  A        Asus7 A Riff 1
        A Asus A Asus7 A Riff 1

Verse:  A        Asus7 A Riff 1 
        A        Asus7 A Riff 2

Chorus: Cmaj7	 Dsus2 D       x3
	Bb	 C     C2* D

Transition: Riff 3


Riff 1:
e|3--3--2-0--0---3--3--2-0--0-|
B|0--0--0-0--0---0--0--0-0--0-|
G|0--0--0-0--0---0--0--0-0--0-|
D|2--2--2-2--2---2--2--2-2--2-|
A|2--2--2-2--2---2--2--2-2--2-|
E|----------------------------|

Riff 2
e|3--3--2-0--0---0--0--2-2--2-|
B|0--0--0-0--0---0--0--0-0--0-|
G|0--0--0-0--0---0--0--0-0--0-|
D|2--2--2-2--2---0--0--0-0--0-|
A|2--2--2-2--2---2--2--2-2--2-|
E|----------------------------|

Riff 3
e|0--0-0-0-0-0000-|
B|0--0-0-0-0-0000-|
G|x--x-x-x-x-xxxx-|
D|x--x-x-x-x-xxxx-|
A|x--x-x-x-x-xxxx-|
E|x--x-x-x-x-xxxx-|

I'll give you that much.  The order of everything is easy to figure out. Enjoy.

=============================================================================
Tap to rate this tab
 
# A B C D E F G H I J K L M N O P Q R S T U V W X Y Z