Song name
# A B C D E F G H I J K L M N O P Q R S T U V W X Y Z

Howie Day - Collide Live tab

-------------------------------------------------------------------------------
			     Collide (Live) Lead Part - Howie Day
-------------------------------------------------------------------------------
Tabbed by:  Griffin


Tuning: Capo on the 3rd, all relative to that.  Note: a friend requested this tab, and 
the lead's part in the live versions.

e|--------------3-------------7--------------------------------------------------|
B|----------------------------5--------------------------------------------------|
G|---------4------------------7--------------------------------------------------|
D|---5------------------------7--------------------------------------------------|
A|-------------------------------------------------------------------------------|
E|-------------------------------------------------------------------------------|

e|----------7----------------3---------------------------------------------------|
B|---------------------------3---------------------------------------------------|
G|--------------7------------5---------------------------------------------------|
D|----7----------------------5---------------------------------------------------|
A|-------------------------------------------------------------------------------|
E|-------------------------------------------------------------------------------|
Tap to rate this tab
 
# A B C D E F G H I J K L M N O P Q R S T U V W X Y Z