Song name
# A B C D E F G H I J K L M N O P Q R S T U V W X Y Z

Howie Day - Morning After tab

morning after - - howie day - 

the other version was close, but use this progression instead-much better

verse - am f c g 

e ----------------(3)-(3)--3--| 
b -0---1---0---1---0---1---0--| 
g -2---2---2---2---0---0---0--| 
d -2---2---3---3---2---2---0--| 
a -0---0-------3---3---3---x--| 
e -------------------------3--| 

- chorus - em f c g 

e -(3)--1---0-------3--| 
b -(3)--1---0(h1)---3--| 
g --0---2---0-------0--| 
d --2---3---2-------0--| 
a --2---3---3-------x--| 
e --0---1-----------3--| - 

 - bridge - emaj7 f c g 

e -0------1---0------3--| 
b -3------1---1(h3)--3--| 
g -1------2---0------0--| 
d -0------3---2------0--| 
a -2------3---3------x--| 
e -0------1----------3--|
Tap to rate this tab
# A B C D E F G H I J K L M N O P Q R S T U V W X Y Z