Song name
# A B C D E F G H I J K L M N O P Q R S T U V W X Y Z

Howler - Back Of Your Neck tab

It's My First Tab So Please Go Easy! Enjoy!


Intro Riff/ Post-Chorus
e|-------7----7----7----7--7|------7----7----7----7--7-7|
B|----7----7----7----7-----7|---7----7----7----7-----7-7|
G|----7h8--7h8--7h8--7h8---8|---7h8--7h8--7h8--7h8---8-8|
D|-------------------------9|------------------------9-9| 
A|-------------------------9|------------------------9-9|
E|-------------------------7|------------------------7-7|

e|-------7----7----7----7--7|-------7----7----7----7------|
B|----7----7----7----7-----7|----7----7----7----7---------|
G|----7h8--7h8--7h8--7h8---8|----7h8--7h8--7h8--7h8-------|
D|-------------------------9|-----------------------4-6-8-| 
A|-------------------------9|-----------------------4-6-8-|
E|-------------------------7|-----------------------2-4-6-|

Chorus

  B     Bb    E     C#   E
e|7-----6-----0-----9----7--|
B|7-----6-----0-----9----7--|
G|8-----7-----1-----10---8--|
D|9-X12-8-X12-2-X24-11X4-9X2| X2
A|9-----8-----2-----11---9--|
E|7-----6-----0-------------|

Verse
e|-----------------------------------------7-7--7---7-7--777--|
B|-----------------------------------------8-8--8---8-8--888--|
G|-8-8--8---8-8--888---4-4--4---4-4--444---9-9--9---9-9--999--|
D|-9-9--9---9-9--999---6-6--6---6-6--666---9-9--9---9-9--999--|
A|-9-9--9---9-9--999---6-6--6---6-6--666---7-7--7---7-7--777--|
E|-7-7--7---7-7--777---4-4--4---4-4--444----------------------|

e|-7-7--7---7-7--777---|
B|-8-8--8---8-8--888---|
G|-9-9--9---9-9--999---|
D|-9-9--9---9-9--999---|X4
A|-7-7--7---7-7--777---|
E|---------------------|

Lead Over The 3rd And 4th Bars
A|-------------------------|
E|-7--7h9-4-4h7-0--222--444|

Chorus

Intro Riff

Solo (not too sure about this)
e|---------------------------------------|
B|---------------------------------------|
G|------11--13--11-13-11-----------------|
D|--/13---13-------------13---9---6-6-6-4|
A|---------------------------------------|
E|---------------------------------------|

e|----------------------------------------------------|
B|-----------12--/16-14-12------1212--121212--12121212|
G|-----11--13--------------12---1212--121212--12121212|
D|--/13--13-------------------------------------------|
A|----------------------------------------------------|
E|----------------------------------------------------|

e|-7~~-4~~-7~~-|
B|-7~~-4~~-8~~-|
G|-8~~-5~~-9~~-|
D|-9~~-6~~-9~~-| X2
A|-9~~-6~~-7~~-|
E|-7~~-4~~-----|

Chorus

Itro riff

e|-------7----7----7----7--7-------7----7----7----7--7-7|
B|----7----7----7----7-----7----7----7----7----7-----7-7|
G|----7h8--7h8--7h8--7h8---8----7h8--7h8--7h8--7h8---8-8|
D|-------------------------9-------------------------9-9| X2
A|-------------------------9-------------------------9-9|
E|-------------------------7-------------------------7-7|

End. It's My First Tab Sorry If It Ain't Perfect!
Tap to rate this tab
# A B C D E F G H I J K L M N O P Q R S T U V W X Y Z