Song name
# A B C D E F G H I J K L M N O P Q R S T U V W X Y Z

Howler - Pythagorean Fearem tab

-------------------------------------------------------------------------------
                             Pythagorean Fearem - Howler 
-------------------------------------------------------------------------

Tuning:Standard

Intro:

e|---------------------------------------------------------------------------|
B|---------------------------------------------------------------------------|
G|---------------------------------------------------------------------------|
D|---------------------------------------------------------------------------|
A|---------------------------------------------------------------------------|
E|-22222222/---1010101010101010----------------------------------------------|

e|---------------------------------------------------------------------------|
B|---------------------------------------------------------------------------|
G|---------------------------------------------------------------------------|
D|---------------------------------------------------------------------------|
A|---------------------------------------------------------------------------|
E|---22222222/---7777--5555--------------------------------------------------|
then...(listen to the song for rhythym)
e|--2----------5-------------------------------------------------------------|
B|--2----------5-------------------------------------------------------------|
G|--3----------6-------------------------------------------------------------|
D|--4----------7-------------------------------------------------------------|
A|--4----------7-------------------------------------------------------------|
E|---------------------------------------------------------------------------|

e|--2----------7---------5---------------------------------------------------|
B|--2----------7---------5---------------------------------------------------|
G|--3----------8---------6---------------------------------------------------|
D|--4----------9---------7---------------------------------------------------|
A|--4----------9---------7---------------------------------------------------|
E|---------------------------------------------------------------------------|
before solo...
e|---------------------------------------------------------------------------|
B|---------------------------------------------------------------------------|
G|---------------------------------------------------------------------------|
D|---------------------------------------------------------------------------|
A|---------------------------------------------------------------------------|
E|--2-0-2-0-2-0-2-0-2-0-2-0-2-0-2-0------------------------------------------|
Solo...
e|---------------------------------------------------------------------------|
B|----7------7-------7--------10--10--10--10---7--7--7----------------------|
G|----9b-----9b------9b------------------------------------------------------|
D|---------------------------------------------------------------------------|
A|---------------------------------------------------------------------------|
E|---------------------------------------------------------------------------|

e|---------------------------------------------------------------------------|
B|----7-------7-------7------------------------------------------------------|
G|----9b------9b------9b------9--9--9--9----6--6--6--------------------------|
D|---------------------------------------------------------------------------|
A|---------------------------------------------------------------------------|
E|---------------------------------------------------------------------------|
(tremolo pick)
e|------------------------(14)---(12)-----------------------(14)-----(17)----|
B|---(14)/---------(14)--------------------(14)/-----(14)--------------------|
G|---------------------------------------------------------------------------|
D|---------------------------------------------------------------------------|
A|---------------------------------------------------------------------------|
E|---------------------------------------------------------------------------|
 
-----Use same CHORDS above to finish the rest of the song---USE YOUR EARS---
************************************

| /   slide up
| \   slide down
| h   hammer-on
| p   pull-off
| ~   vibrato
| +   harmonic
| x   Mute note
| b   Bend
| pb  Pre-bend
| br  Bend release
| pbr Pre-bend release
| brb Bend release bend

************************************
Tap to rate this tab
# A B C D E F G H I J K L M N O P Q R S T U V W X Y Z