Howlin Wolf - Smokestack Lightnin tab

1st riff:
--3---------------------------|
--------------3---0-----------|
-------3s4-------------2--0---|
----------------------------2-|
------------------------------|
------------------------------|

2nd riff:
--0--3---------------------------|
-----------------3---0-----------|
----------3s4-------------2--0---|
-------------------------------2-|
---------------------------------|
---------------------------------|
Tap to rate this tab
 
# A B C D E F G H I J K L M N O P Q R S T U V W X Y Z