Song name
# A B C D E F G H I J K L M N O P Q R S T U V W X Y Z

Howlin Wolf - Wang Dang Doodle tab

-------------------------------------------------------------------------------
			                     Howlin' Wolf- Wang Dang Doodle
-------------------------------------------------------------------------------

Tabbed by: Mark Dirt
Email: markdirt@gmail.com
Tuning: Standard

Legend:
| /  slide up
| h  hammer-on
| p  pull-off
| x  Mute note


Riff 1: Lead
e|----------------------------------------------------------------------------|
b|----------------------------------------------------------------------------|
g|----------------------------------------------------------------------------|
d|--------7----------9--7-----------------------------------------------------|
a|---7/9---------9--------9---7h9p7-------------------------------------------|
e|--------------------------------------10---7--------------------------------|

Riff 2: Rhythm (B7)
e|---2------------------------------------------------------------------------|
b|---0------------------------------------------------------------------------|
g|---2------------------------------------------------------------------------|
d|---1------------------------------------------------------------------------|
a|---2------------------------------------------------------------------------|
e|---x*-----------------------------------------------------------------------|

*You should mute the low e-string with your thumb.
Tap to rate this tab
 
# A B C D E F G H I J K L M N O P Q R S T U V W X Y Z