Song name
# A B C D E F G H I J K L M N O P Q R S T U V W X Y Z

Howling Bells - Low Happening tab

low happening by howling bells

adamstanworth; mrcooladam@hotmail.com

some of the credit for this goes to chapman li and rory 426

Key Of B

Intro

e|----------------|----------------|----------------|----------------|
b|-12----12-------|-12----12----16-|-12----12-------|----------------|
g|----15----15-13-|----15----15----|----15----15-13-|-13bbbbbbbbbb15-|
d|----------------|----------------|----------------|----------------|
a|----------------|----------------|----------------|----------------|
e|----------------|----------------|----------------|-(tremelo pick)-|

x2

Ab
God only knows what you do with yourself
B                       C#
You sleep all the day and you're wasting away
Ab
You beg for your food

And you lie like a dog
B                        C#
You steal all your moves and you drink the last drop

[PRE-CHORUS]

[GUITAR 1]
e|-------------------------------------------------------------------------|
B|-------------------------------------------------------------------------|
G|-------------------------------------------------------------------------|
D|-------------------------------------------------------------------------|
A|----------------------------------------------------14-16-16-14-16-16-16-|
E|4-4-4-4/14-14-14\4-4-4-4/14-14-14\4-4-4--/16-16-16-----------------------|

[GUITAR 2]

Ab
You watch me

I watch you
B
You changed me
C#
Like I knew
Ab
You used me

Like I used you
B             C#
My love shot right through you

[CHORUS]

[GUITAR 1]

e|----------------------------------------------------|
B|-13-13-13-13- x4 -12-12-12-12- x2 -10-10-10-10- x2 -|
G|----------------------------------------------------|
D|----------------------------------------------------|
A|----------------------------------------------------|
E|----------------------------------------------------|

e|----------------------------------------------------|
B|-13-13-13-13- x4 -11-11-11-11- x2 -10-10-10-10- x2 -|
G|----------------------------------------------------|
D|----------------------------------------------------|
A|----------------------------------------------------|
E|----------------------------------------------------|

[GUITAR 2]

Ab
It's a low, low, low, low happening
B               C#
It's a low, low, low, low happening
Ab
It's a low, low, low, low happening
B                C#
It's a low, low, low, low happening

[BRIDGE]

[GUITAR 1]

e|----------------|----------------|----------------|----------------|
b|-12----12-------|-12----12----16-|-12----12-------|-12------/15-15-|
g|----15----15-13-|----15----15----|----15----15-13-|-15b17r15/17-17b|
d|----------------|----------------|----------------|----------------|
a|----------------|----------------|----------------|----------------|
e|----------------|----------------|----------------|----------------|

that bit on the end of that last bar is complicated to tab, sorry. but the way it is, it
bend and release (keep the 12 still held down) the 12, 15 bit then while it's still
down, slide up to the 15, 17 bit, then pick it again and pull as big a unison bend as 
can, if that makes any sense...

e|----------------|----------------|----------------|----------------|
b|-12----12-------|-12----12----16-|-12----12-------|----------------|
g|----15----15-13-|----15----15----|----15----15-13-|-13bbbbbbbbbb15-|
d|----------------|----------------|----------------|----------------|
a|----------------|----------------|----------------|----------------|
e|----------------|----------------|----------------|-(tremelo pick)-|


[GUITAR 2]

go through the Ab > B > C# cycle a few times

[VERSE 2]

[GUITAR 1, i suggest Improv in B, I can't tab it]

[GUITAR 2]

Ab
God only knows what you do with yourself
B                       C#
You sleep all the day and you're wasting away
Ab
You beg for your food

And you lie like a dog
B                        C#
You steal all your moves and you drink the last drop

[PRE-CHORUS]

[GUITAR 1]
e|-------------------------------------------------------------------------|
B|-------------------------------------------------------------------------|
G|-------------------------------------------------------------------------|
D|-------------------------------------------------------------------------|
A|----------------------------------------------------14-16-16-14-16-16-16-|
E|4-4-4-4/14-14-14\4-4-4-4/14-14-14\4-4-4--/16-16-16-----------------------|

[GUITAR 2]

Ab
You watch me

I watch you
B
You changed me
C#
Like I knew
Ab
You used me

Like I used you
B             C#
My love shot right through you

[CHORUS]

[GUITAR 1]

e|----------------------------------------------------|
B|-13-13-13-13- x4 -12-12-12-12- x2 -10-10-10-10- x2 -|
G|----------------------------------------------------|
D|----------------------------------------------------|
A|----------------------------------------------------|
E|----------------------------------------------------|

e|----------------------------------------------------|
B|-13-13-13-13- x4 -11-11-11-11- x2 -10-10-10-10- x2 -|
G|----------------------------------------------------|
D|----------------------------------------------------|
A|----------------------------------------------------|
E|----------------------------------------------------|

[GUITAR 2]

Ab
It's a low, low, low, low happening
B               C#
It's a low, low, low, low happening
Ab
It's a low, low, low, low happening
B                C#
It's a low, low, low, low happening

e|-----------------------------------------------------------------|
B|-----------------------------------------------------------------|
G|-----------------------------------------------------------------|
D|-----------------------------------------------------------------|
A|-------------------7-7-7-6-6-6-6-9-9-9-9-9-9-9-9-7-7-7-7-7-7-7-7-|
E|-4-4-4-9-9-9-8-8-8-----------------------------------------------|

e|-----------------------------------------------------------------|
B|-----------------------------------------------------------------|
G|-----------------------------------------------------------------|
D|-----------------------------------------------------------------|
A|-------------------7-7-7-6-6-6-6-8-8-8-8-8-8-8-8-7-7-7-7-7-7-7-7-|
E|-4-4-4-9-9-9-8-8-8-----------------------------------------------|


[VERSE 2]

[GUITAR 1, i suggest Improv in B, I can't tab it]

[GUITAR 2]

Ab
Every night at the beat of the drum
B                       C#
you'd kill to be right, but i know your wrong
Ab
you drink from the heart

and you pour from the soul
B                        C#
You listen to trash but it's not rock 'n' roll

[PRE-CHORUS]

[GUITAR 1]
e|-------------------------------------------------------------------------|
B|-------------------------------------------------------------------------|
G|-------------------------------------------------------------------------|
D|-------------------------------------------------------------------------|
A|----------------------------------------------------14-16-16-14-16-16-16-|
E|4-4-4-4/14-14-14\4-4-4-4/14-14-14\4-4-4--/16-16-16-----------------------|

[GUITAR 2]

Ab
You watch me

I watch you
B
You changed me
C#
Like I knew
Ab
You used me

Like I used you
B             C#
My love shot right through you

[CHORUS]

[GUITAR 1]

e|----------------------------------------------------|
B|-13-13-13-13- x4 -12-12-12-12- x2 -10-10-10-10- x2 -|
G|----------------------------------------------------|
D|----------------------------------------------------|
A|----------------------------------------------------|
E|----------------------------------------------------|

e|----------------------------------------------------|
B|-13-13-13-13- x4 -11-11-11-11- x2 -10-10-10-10- x2 -|
G|----------------------------------------------------|
D|----------------------------------------------------|
A|----------------------------------------------------|
E|----------------------------------------------------|

[GUITAR 2]

Ab
It's a low, low, low, low happening
B               C#
It's a low, low, low, low happening
Ab
It's a low, low, low, low happening
B                C#
It's a low, low, low, low happening

i think that's how it goes, sorry if it's a bit sloppy, and i dint stick in most of the
bits, but theyre not really that essential, just improv them

any comment or correction mrcooladam@hotmail.com
Tap to rate this tab
# A B C D E F G H I J K L M N O P Q R S T U V W X Y Z