Song name
# A B C D E F G H I J K L M N O P Q R S T U V W X Y Z

Hu Xia - Na Xie Nian tab

Hello! This isn't my tab and I take no credit for this, just sharing another's 
work here so it's more accessible and more people can find it easily. Cheers! :)


Na Xie Nian (那些年) - Hu Xia (胡夏)
http://www.youtube.com/watch?v=xWzlwGVQ6_Q

-------------------------------------------------------------------------------
                                Na Xie Nian (那些年)
-------------------------------------------------------------------------------

Tabbed by: Raynor Yeo
URL:http://raynor-guitar-tips.blogspot.com

Tuning: Standard Tuning
Key: F
Capo 5


  C             G/B            Am7            Gm      C7
e|0---------------------1-------0--------------------------------------------|
B|------1--------3---------------------1---------------3---5-----------------|
G|---0-----0---------0-----0--------0-----0----3---5-------------------------|
D|---------------------------------------------------------------------------|
A|3--------------2--------------0----------------------3---------------------|
E|---------------------------------------------3-----------------------------|


  F                Em     Am7       F
e|---------------------------------------------------------------------------|
B|-----------------0-------1------------------3-----------------1------------|
G|2----------------------------------------2-------------0H2-----------------|
D|--------3------------2-------2--------3------------------------------------|
A|----3-------3------------0-------------------------------------------------|
E|1----------------0----------------1----------------------------------------|


  G                            G
e|0---------0----------------------------------------------------------------|
B|-------0-------------0-------3---------------------------------------------|
G|----0------------------------0---------------------------------------------|
D|-----------------------------0---------------------------------------------|
A|---------------------------------------------------------------------------|
E|3----------------------------3---------------------------------------------|
Tap to rate this tab
 
# A B C D E F G H I J K L M N O P Q R S T U V W X Y Z