Song name
# A B C D E F G H I J K L M N O P Q R S T U V W X Y Z

Huang Pinyuan - Xiao Wei tab

My first tab and I haven't seen any tabs on this so enjoy!

/ = slide up
h = hammer on

Intro
----------------------------I
---------6-3----------------I
---3-3/7-----3-3/7----------I
-5--------------------------I
----------------------------I
----------------------------I

----------------------------I
----------------------------I
-5-3-5-5/7-5-3--------------I
---------------5------------I
----------------------------I
----------------------------I

Ending 1 (play with Intro once then repeat intro with Ending 2)
   ----------------------------I
   ----------------------------I
   ---3-5/7-5-3-5-5/7-5-3----3-I
   -5---------------------55---I
   ----------------------------I
   ----------------------------I

Ending 2
   ----------------------------I
   ----------------------------I
   ---3-5/7-5-3-5-5/7-5-3-5-3--I
   -5--------------------------I
   ----------------------------I
   ----------------------------I

Pre Chorus
-----------------------------------I
-------------------17-15-13-10-13--I
-------------10h12-----------------I
-------10h12-----------------------I
-10h12-----------------------------I
-----------------------------------I
Tap to rate this tab
 
# A B C D E F G H I J K L M N O P Q R S T U V W X Y Z