Song name
# A B C D E F G H I J K L M N O P Q R S T U V W X Y Z

Hubert Von Goisern - Brenna Tuats Guat tab

Vielen Dank an Eanoid, der schon sehr gute "Vorarbeit" geleistet hat! Die Akkorde 
stimmen soweit, ich habe noch ein paar Übergänge und das Riff während der 4. Strophe hinzugefügt!



Hubert Von Goisern - Brenna tuats guat  (2011)

Intro: A

Strophe 1: 
A
wo is da Plotz
wo da Teifl seine Kinda kriagt
des is da Plotz
wo all's z'samm rennt
wo is des Feuer
hey wo geht'n do da Blitz nieder
wo is'n de Hütt'n 
wo da Stodl brennt

Instrumental: A

Strophe 2: 
A (w/ Trem)
hab'n ma Pech oder an Lauf
fall'n ma um oder auf
samma dünn oder dick
hab'n an Reim oder Glück
teil ma aus, schenka ma ein
toan ma uns abi oder g'frein
samma ma Christ hätt ma gwisst
wo da Teifl baut in Mist


Übergang zum Refrain + Refrain:

         D       G         D       A
||---------------3-3-3-3-|-----------------|
||-------3-3-3-3-3-3-3-3-|-3-3-3-3-2-2-----|
||-------2-2-2-2-0-0-0-0-|-2-2-2-2-2-2-----|
||-------0-0-0-0-0-0-0-0-|-0-0-0-0-2-2-----|
||-0-2-4---------X-X-X-X-|---------0-0-2-4-|
||---------------3-3-3-3-|-----------------|


   D       G         D       A
|:---------3-3-3-3-|-----------------:|
|:-3-3-3-3-3-3-3-3-|-3-3-3-3-2-2-----:|
|:-2-2-2-2-0-0-0-0-|-2-2-2-2-2-2-----:|
|:-0-0-0-0-0-0-0-0-|-0-0-0-0-2-2-----:|
|:---------X-X-X-X-|---------0-0-2-4-:|
|:---------3-3-3-3-|-----------------:|


  D       G         D   A   D
                    <   <   < 
|---------3-3-3-3-|------------||
|-3-3-3-3-3-3-3-3-|-3---2---3--||
|-2-2-2-2-0-0-0-0-|-2---2---2--||
|-0-0-0-0-0-0-0-0-|-0---2---0--||
|---------X-X-X-X-|-----0------||
|---------3-3-3-3-|------------||



Refrain:
D        G
  ajeder woass, dass a
D               A
Geld nit auf da Wiesen wachst
    D               G
und essen kann ma's a nit
     D            A
aber brenna tat's guat
     D              G
aber hoazen toan ma Woazen
       D             A
und de Ruabn und in Kukuruz 
    D               G
Und wann ma lang so weiter hoazen
D      A  D
brennt da Huat

Instrumental: 
A

Strophe 3: 
A
wo is des Geld
des was überall fehlt
ja hat denn koana an Genierer
wieso kemman allweil de viara
de liagn, de die Wahrheit verbieg'n
und wanns nit kriagn was woll'n
dann wird's g'stohln,
hey de soll der Teifl hol'n



Gitarre in Strophe 4:

P.M.- - - - - - - - - - - - - - - -|

|:---------------------------------|
|:---------------------------------|
|:---------------------------------|
|:-5-7-7-7-7-7-7-7-5-7-7-7-7-7-7-7-|
|:---------------------------------|
|:---------------------------------|


P.M.- - - - - - - - - - - - - - - -|

|---------------------------------:|
|---------------------------------:|
|---------------------------------:|     4 x Wiederholung, danach Refrain
|-5-7-7-7-7-7-7-7-5-7-7-7---------:|
|-------------------------7-------:|
|---------------------------------:|




Strophe 4 (höher gesungen) :
A
Wo is da Platz
wo da Teifl seine
Kinda kriagt
wo all's z'sammrennt
Wo is des Feier
wo gehtn grod a Blitz nieder
wo isn de Hüttn 
wo da Stodl der brennt

Refrain 1x

Zwischenteil (Jodler): 
C    G     D
C    G     D    A

Refrain 2x

Instrumental: Akkorde von Refrain 2x

Refrain acapella


Viel Spaß damit! :)
Tap to rate this tab
# A B C D E F G H I J K L M N O P Q R S T U V W X Y Z